Song name
# A B C D E F G H I J K L M N O P Q R S T U V W X Y Z

Rx Bandits - Mientras La Veo Sonar tab

----------------------------------------------------------------------------
                    Rx Bandits - Mientras La Veo Sonar
----------------------------------------------------------------------------

Tab by Caleb Astey ( http://www.mathcs.duq.edu/~astey/ )

This is quick and dirty, for those of you who want to jam along with a 
new track from Mandala

Intro/Verse   4/4 - Listen for Timing
|-----------------------------------------|
|-----------------------------------------|
|-----------------------------------------|
|------7-5----5-7-5-------7-5--5-7-5------|
|------------------------------------7----|
|-5-0-----------------5-0-----------------|


Transition:
2 Bars:  First : 4/4
         Second: 5/4
 
Quarter Note: 1 2 3 4 | 1  2  3  4  5  
            |---------|----------------|
            |---------|----------------|
            |-5---7---|-10----12-12-12-|
            |---------|----------------|
            |-3---5---|-8-----10-10-10-|
            |---------|----------------|


  
Chorus:  4/4 - Listen For Timing

Am G Dm C | Am G Dm B  Or use chords below

|-5-5--5-5---3-3-3-3-3---5-5--5-5---3-3-3-3-3----|
|-5-5--5-5---3-3-3-3-3---6-6--6-6---5-5-5-5-5----|
|-5-5--7-7---4-4-4-4-4---7-7--7-7---5-5-5-5-5----|
|-7-7--7-7---5-5-5-5-5---7-7--7-7---5-5-5-5-5----|
|-7-7--7-7---5-5-5-5-5---5-5--5-5---3-3-3-3-3----|
|-5-5--5-5---3-3-3-3-3---------------------------|

|-5-5--5-5---3-3-3-3-3---5-5--5-5---2--2-2-------|
|-5-5--5-5---3-3-3-3-3---6-6--6-6---4--4-4-------|
|-5-5--7-7---4-4-4-4-4---7-7--7-7---4--4-4-------|
|-7-7--7-7---5-5-5-5-5---7-7--7-7---4--4-4-------|
|-7-7--7-7---5-5-5-5-5---5-5--5-5---2--2-2-------|
|-5-5--5-5---3-3-3-3-3---------------------------|

Song -   Verse
         Transition
         Chorus
         Verse
         Transition
         Chorus
	 Jam

Outro - Am Jam over Keyboards
Tap to rate this tab
 
# A B C D E F G H I J K L M N O P Q R S T U V W X Y Z