Song name
# A B C D E F G H I J K L M N O P Q R S T U V W X Y Z

Rx Bandits - Anyone But You tab

*********************************
* Song   : Anyone But You	*
* Artist : Rx Bandits		*
* Album  : Progress		*
* Year   : 2001			*
*********************************
    Tabbed by: Bill Streckfus

Tempo = 210 bpm

Verse:
------------------------------------------------------------------------------

Guitars 1 & 2 (distorted):

   F#5                F#M7/F             F#M7/C#
E|------------------|------------------|------------------|------------------|
B|------------------|------------------|------------------|------------------|
G|----11------11----|----11------11----|------------------|------------------|
D|----11------11----|----11------11----|----11------11----|----11------11----|
A|-9-9-9---9-9-9----|-8-8-8---8-8-8----|-----8-------8----|-----8-------8----|
E|------------------|------------------|-9-9-9---9-9-9----|-9-9-9---9-9-9----|
   p.m.    p.m.       p.m.    p.m.       p.m.    p.m.       p.m.    p.m.

   B5                                                               C#5                             
E|------------------|------------------|------------------|------------------|
B|------------------|------------------|------------------|------------------|
G|-x-x---x-4--------|-x-x---x-4--------|-x-x---x-4--------|-----4-------6----|
D|-x-x---x-4--------|-x-x---x-4--------|-x-x---x-4--------|-----4-------6----|
A|-x-x---x-2--------|-x-x---x-2--------|-x-x---x-2--------|-2-2-2---4-4-4----|
E|------------------|------------------|------------------|------------------|
                                                            p.m.    p.m.

   F#5                F#M7/F             F#M7/C#
E|------------------|------------------|------------------|------------------|
B|------------------|------------------|------------------|------------------|
G|----11------11----|----11------11----|------------------|----11h12-8-------|
D|----11------11----|----11------11----|----11------11----|--11-------11-----|
A|-9-9-9---9-9-9----|-8-8-8---8-8-8----|-----8-------8----|-9------------9-8-|
E|------------------|------------------|-9-9-9---9-9-9----|------------------|
   p.m.    p.m.       p.m.    p.m.       p.m.    p.m.   

   B5                                                               C#5     
E|------------------|------------------|------------------|------------------|
B|------------------|------------------|------------------|------------------|
G|-x-x---x-4--------|-x-x---x-4--------|-4-4---4---4-4-4--|---4---4-4-4-6----|
D|-x-x---x-4--------|-x-x---x-4--------|-4-4---4---4-4-4--|---4---4-4-4-6----|
A|-x-x---x-2--------|-x-x---x-2--------|-2-2---2---2-2-2--|---2---2-2-2-4----|
E|------------------|------------------|------------------|------------------|
                                         p.m.p.m.p.m.p.m.p.m.p.m.p.m.p.m

Guitar 1 (distorted):

   F#M7
E|------------------|------------------|------------------|------------------|
B|------------------|------------------|------------------|------------------|
G|--------11111110--|--10-6---6---6-6--|--------11111110--|--10-6---6---6-6--|
D|------------------|------------------|------------------|------------------|
A|-9---9-9-9-9-9-8--|---8-4---4---4-4--|-9---9-9-9-9-9-8--|---8-4---4---4-4--|
E|------------------|------------------|------------------|------------------|

Guitar 2 (distorted):

                                         F#M7
E|------------------|------------------|------------------|------------------|
B|------------------|------------------|------------------|------------------|
G|------------------|------------------|--------11111110--|--10-6---6---6-6--|
D|------------------|------------------|------------------|------------------|
A|------------------|------------------|-9---9-9-9-9-9-8--|---8-4---4---4-4--|
E|------------------|------------------|------------------|------------------|

Chorus:
------------------------------------------------------------------------------

   F#5                                   C#5 
E|------------------|------------------|------------------|------------------|
B|------------------|------------------|------------------|------------------|
G|------------------|------------------|-6-------6---6-6--|---6-6---6-6-6-6--|
D|-4-------4---4-4--|---4-4---4-4-4-4--|-6-------6---6-6--|---6-6---6-6-6-6--|
A|-4-------4---4-4--|---4-4---4-4-4-4--|-4-------4---4-4--|---4-4---4-4-4-4--|
E|-2-------2---2-2--|---2-2---2-2-2-2--|------------------|------------------|

   B5
E|------------------|------------------|------------------|------------------|
B|------------------|------------------|------------------|------------------|
G|-4-------4---4-4--|---4-4---4-4-4-4--|-4-------4---4-4--|---4-4---4-4-4-4--|
D|-4-------4---4-4--|---4-4---4-4-4-4--|-4-------4---4-4--|---4-4---4-4-4-4--|
A|-2-------2---2-2--|---2-2---2-2-2-2--|-2-------2---2-2--|---2-2---2-2-2-2--|
E|------------------|------------------|------------------|------------------|

   F#5                                   C#5
E|------------------|------------------|------------------|------------------|
B|------------------|------------------|------------------|------------------|
G|------------------|------------------|-6-------6---6-6--|---6-6---6-6-6-6--|
D|-4-------4---4-4--|---4-4---4-4-4-4--|-6-------6---6-6--|---6-6---6-6-6-6--|
A|-4-------4---4-4--|---4-4---4-4-4-4--|-4-------4---4-4--|---4-4---4-4-4-4--|
E|-2-------2---2-2--|---2-2---2-2-2-2--|------------------|------------------|

   B5
E|------------------|------------------|------------------|------------------|
B|------------------|------------------|------------------|------------------|
G|-4-------4---4-4--|---4-4---4--4--4--|-4----------------|-4----------------|
D|-4-------4---4-4--|---4-4---4--4--4--|-4----------------|-4----------------|
A|-2-------2---2-2--|---2-2---2--2--2--|-2----------------|-2----------------|
E|------------------|------------------|------------------|------------------|
                              p.m.p.m.   hold

From here play the verse twice followed by the chorus again

Bridge:
------------------------------------------------------------------------------

Guitars 1 & 2:

   D#m                                   A#m
E|------------------|------------------|------------------|------------------|
B|------------------|------------------|------------------|------------------|
G|-------------3----|---------4-3------|------------------|------------------|
D|-----------4------|-------------4----|-------------3----|---------4-3------|
A|---------6--------|------------------|-----------4------|-------------4----|
E|------------------|------------------|---------6--------|------------------|

   B                  C#m                D#m                Fm      F#
E|------------------|------------------|------------------|------------------|
B|------------------|------------------|------------------|------------------|
G|------------------|------------------|------------------|------------------|
D|------------------|------------------|------------------|------------------| x 2
A|-------1-2-2-2----|-------2-4-4-4----|-------4-6-6-6----|-8-8-8---9-9-9----|
E|------------------|------------------|------------------|------------------|

Guitar 3 (delay):

   D#m                                   A#m
E|-6----------------|------------------|-1----------------|------------------|
B|-7----------------|------------------|-2----------------|------------------|
G|-8----------------|------------------|-3----------------|------------------|
D|-8----------------|------------------|-3----------------|------------------|
A|-6----------------|------------------|-1----------------|------------------|
E|------------------|------------------|------------------|------------------|

   B
E|-7----------------|------------------|------------------|------------------|
B|-7----------------|------------------|------------------|------------------|
G|-8----------------|------------------|------------------|------------------|
D|-9----------------|------------------|------------------|------------------| x 2
A|------------------|------------------|------------------|------------------|
E|------------------|------------------|------------------|------------------|

Guitar 1:

   D#m                                   A#m
E|-6---6---6---6----|-6---6---6---6----|-6---6---6---6----|-6---6---6---6----|
B|-7---7---7---7----|-7---7---7---7----|-6---6---6---6----|-6---6---6---6----|
G|-8---8---8---8----|-8---8---8---8----|-6---6---6---6----|-6---6---6---6----|
D|------------------|------------------|------------------|------------------|
A|------------------|------------------|------------------|------------------|
E|------------------|------------------|------------------|------------------|

Guitars 1 & 2 (distorted):

   B5                                                               C#5                           
E|------------------|------------------|------------------|------------------|
B|------------------|------------------|------------------|------------------|
G|-4---4------------|-4---4---x-x-x-x--|-4---4------------|-4---4---6---6----|
D|-4---4------------|-4---4---x-x-x-x--|-4---4------------|-4---4---6---6----|
A|-2---2------------|-2---2---x-x-x-x--|-2---2------------|-2---2---4---4----|
E|------------------|------------------|------------------|------------------|

Guitar 1:

   D#m                                   A#m
E|-6---6---6---6----|-6---6---6---6----|-6---6---6---6----|-6---6---6---6----|
B|-7---7---7---7----|-6---6---6---6----|-6---6---6---6----|-6---6---6---6----|
G|-8---8---8---8----|-6---6---6---6----|-6---6---6---6----|-6---6---6---6----|
D|------------------|------------------|------------------|------------------|
A|------------------|------------------|------------------|------------------|
E|------------------|------------------|------------------|------------------|

Guitars 1 & 2 (distorted):

   B5                                                               
E|------------------|------------------|------------------|------------------|
B|------------------|------------------|------------------|------------------|
G|-4---4---x-x-x-x--|-4---4---x-x-x-x--|-4---4---x-x-x-x--|-4----------------|
D|-4---4---x-x-x-x--|-4---4---x-x-x-x--|-4---4---x-x-x-x--|-4-------8-9-8-6--|
A|-2---2---x-x-x-x--|-2---2---x-x-x-x--|-2---2---x-x-x-x--|-2----------------|
E|------------------|------------------|------------------|---------6-7-6-4--|


Outro:
------------------------------------------------------------------------------

   F5
E|------------------|------------------|------------------|------------------|
B|------------------|------------------|------------------|------------------|
G|------------------|------------------|11/---------------|------------------|
D|-4----------------|------------------|11/---------------|------------------| 
A|-4----------------|------------------|-9/---------------|------------------|
E|-2----------------|------------------|------------------|------------------|


-----------------------------------------------------------------------------
If this tab was helpful and you're as big of a bandits fan as I am, be on the
lookout for more Rx Bandits tabs by yours truly.
Tap to rate this tab
# A B C D E F G H I J K L M N O P Q R S T U V W X Y Z