Song name
# A B C D E F G H I J K L M N O P Q R S T U V W X Y Z

Rx Bandits - Status tab

*********************************
* Song   : Status		*
* Artist : Rx Bandits		*
* Album  : Progress		*
* Year   : 2001			*
*********************************
    Tabbed by: Bill Streckfus

Tempo = 192 bpm

Verse :
------------------------------------------------------------------------------

Guitar 1 :

   A                                                        D
E|-------------x-5--|-----x-------5----|-----5------------|------------------|
B|-------------x-5--|-----x-------5----|-----5-------x-5/-|-7-----------7----|
G|-------------x-6--|-----x-------6----|-----6-------x-6/-|-7-----------7----|
D|-------------x-7--|-----x------------|-------------x-7/-|-7-----------7----|
A|------------------|------------------|------------------|------------------|
E|------------------|------------------|------------------|------------------|

               A                                     E
E|-------------x-5--|-----5-------5----|-----5------------|------------------|
B|-7-----------x-5--|-----5-------5----|-----5-------x-9--|-----9-------9----|
G|-7-----------x-6--|-----6-------6----|-----6-------x-9--|-----9-------9----|
D|-7----------------|------------------|-------------x-9--|-----9-------9----|
A|------------------|------------------|------------------|------------------|
E|------------------|------------------|------------------|------------------|

E|------------------|
B|-9-----------9-x--|
G|-9-----------9-x--|
D|-9-----------9-x--|
A|------------------|
E|------------------|

   F#m7               E       F#m7  E        E                          F#m
E|-----9-----9------|---------9--------|------------------|-------------x-9--|
B|----10----10------|-9---x--10---x-9--|-----x-------9----|-----9-------x10--|
G|-----9-----9------|-9---x---9---x-9--|-----x-------9----|-----9-------x11--|
D|----11----11------|-9---x--11---x-9--|-----x-------9----|-----9------------|
A|-9----------------|------------------|------------------|------------------|
E|------------------|------------------|------------------|------------------|

   F#m7               E      F#m7   E                                   D
E|-----x------------|------------------|------------------|------------------|
B|-----x---x10---x--|-9---x-x10---x-9--|-----x-------x----|-----x-------x-7--|
G|-----x---x-9---x--|-9---x-x-9---x-9--|-----x-------x----|-----x-------x-7--|
D|------------------|-------------x-9--|-----x-------x----|-----x-------x-7--|
A|------------------|------------------|------------------|------------------|
E|------------------|------------------|------------------|------------------|

Pre-Chorus :
------------------------------------------------------------------------------

Guitar 1 :

   D                  E                  A
E|------------------|------------------|------------------|------------------|
B|-----x-------x-7/-|-9---x-------x-x--|-x---5---x---5----|-x---5---x---x-7/-|
G|-----x-------x-7/-|-9---x-------x-x--|-x---6---x---6----|-x---6---x---x-6/-|
D|-----x-------x-7/-|-9---x-------x-x--|-x---7---x---7----|-x---7---x---x-5/-|
A|------------------|------------------|------------------|------------------|
E|------------------|------------------|------------------|------------------|

   D                  E                  A
E|------------------|------------------|------------------|------------------|
B|-7---x-------x-7/-|-9---x-------x-x--|-x---5---x---5----|-x---5---x---x-7/-|
G|-7---x-------x-7/-|-9---x-------x-x--|-x---6---x---6----|-x---6---x---x-6/-|
D|-7---x-------x-7/-|-9---x-------x-x--|-x---7---x---7----|-x---7---x---x-5/-|
A|------------------|------------------|------------------|------------------|
E|------------------|------------------|------------------|------------------|

   D                  E                  F#m     E          D
E|------------------|------------------|------------------|------------------|
B|-7---x-------x-7/-|-9---x-------x-x--|10-------9--------|-7----------------|
G|-7---x-------x-7/-|-9---x-------x-x--|11-------9--------|-7----------------|
D|-7---x-------x-7/-|-9---x-------x-x--|11-------9--------|-7----------------|
A|------------------|------------------|-9-------7--------|-5----------------|
E|------------------|------------------|------------------|------------------|

   B                  E7
E|-------7----------|--------7---------|
B|---------7--------|--------9---------|
G|-8----------------|--------7---------|
D|-9----------------|--------9---------|
A|-9----------------|--------7---------|
E|-7----------------|-0----------------|

Guitars 1 & 2 (distortion):

   A5                                    F#5
E|------------------|------------------|------------------|------------------|
B|------------------|------------------|------------------|------------------|
G|------------------|------------------|------------------|------------------|
D|-7---7------------|------------------|-4---4------------|------------------|
A|-7---7------------|------------------|-4---4------------|------------------|
E|-5---5------------|------------------|-2---2------------|------------------|

   D                                     E
E|------------------|------------------|------------------|------------------|
B|------------------|------------------|------------------|------------------|
G|-7---7---7---7----|-7---7---7---7----|-9---9---9---9----|-9---9---9---9----|
D|-7---7---7---7----|-7---7---7---7----|-9---9---9---9----|-9---9---9---9----|
A|-5---5---5---5----|-5---5---5---5----|-7---7---7---7----|-7---7---7---7----|
E|------------------|------------------|------------------|------------------|

Guitar 3 (distortion):

   A5                                    F#5
E|------------------|------------------|------------------|------------------|
B|------------------|------------------|------------------|------------------|
G|------------------|------------------|------------------|------------------|
D|------------------|------------------|------------------|------------------|
A|------------------|------------------|------------------|------------------|
E|------------------|------------------|------------------|------------------|

   D                                     E
E|------------------|------------------|------------------|------------------|
B|------------------|------------------|------------------|------------------|
G|11--11--11--11----|11--11--11--11----|13--13--13--13----|13--13--13--13----|
D|------------------|------------------|------------------|------------------|
A|-9---9---9---9----|-9---9---9---9----|11--11--11--11----|11--11--11--11----|
E|------------------|------------------|------------------|------------------|

Chorus:
------------------------------------------------------------------------------

Guitars 1 & 2 (distortion):

   A5                                    E
E|------------------|------------------|------------------|------------------|
B|------------------|------------------|------------------|------------------|
G|------------------|------------------|-9---9---x-x-x-x--|-9---9---x-x-x-x--|
D|-7---7---x-x-x-x--|-7---7---x-x-x-x--|-9---9---x-x-x-x--|-9---9---x-x-x-x--|
A|-7---7---x-x-x-x--|-7---7---x-x-x-x--|-7---7---x-x-x-x--|-7---7---x-x-x-x--|
E|-5---5---x-x-x-x--|-5---5---x-x-x-x--|------------------|------------------|

   F#m                                   D                 E
E|------------------|------------------|------------------|------------------|
B|------------------|------------------|------------------|------------------|
G|11--11---x-x-x-x--|11--11---x-x-x-x--|-7---7---7---7----|-9---9---9---9----|
D|11--11---x-x-x-x--|11--11---x-x-x-x--|-7---7---7---7----|-9---9---9---9----|
A|-9---9---x-x-x-x--|-9---9---x-x-x-x--|-5---5---5---5----|-7---7---7---7----|
E|------------------|------------------|------------------|------------------|

   A5                         AM7/G#     F#m               
E|------------------|------------------|------------------|------------------|
B|------------------|------------------|------------------|------------------|
G|------------------|------------------|------------------|------------------|
D|-7---7---x-x-x-x--|-7---7---7---7----|-4---4---x-x-x-x--|-4---4---x-x-x-x--|
A|-7---7---x-x-x-x--|-7---7---7---7----|-4---4---x-x-x-x--|-4---4---x-x-x-x--|
E|-5---5---x-x-x-x--|-5---5---4---4----|-2---2---x-x-x-x--|-2---2---x-x-x-x--|

   D                                     E
E|------------------|------------------|------------------|------------------|
B|------------------|------------------|------------------|------------------|
G|-7---7---7---7----|-7---7---7---7----|-9---9---9---9----|-9---9---9---9----|
D|-7---7---7---7----|-7---7---7---7----|-9---9---9---9----|-9---9---9---9----|
A|-5---5---5---5----|-5---5---5---5----|-7---7---7---7----|-7---7---7---7----|
E|------------------|------------------|------------------|------------------|

Guitar 3 (distortion):

   A5                                    E
E|------------------|------------------|------------------|------------------|
B|------------------|------------------|------------------|------------------|
G|14--14------------|14--14------------|13--13------------|13--13------------|
D|------------------|------------------|------------------|------------------|
A|12--12------------|12--12------------|11--11------------|11--11------------|
E|------------------|------------------|------------------|------------------|

   F#m                                   D                 E
E|------------------|------------------|------------------|------------------|
B|------------------|------------------|------------------|------------------|
G|14--14------------|14--14------------|11--11--11--11----|13--13--13--13----|
D|------------------|------------------|------------------|------------------|
A|12--12------------|12--12------------|-9---9---9---9----|11--11--11--11----|
E|------------------|------------------|------------------|------------------|

   A5                         AM7/G#     F#m               
E|------------------|------------------|------------------|------------------|
B|------------------|------------------|------------------|------------------|
G|14--14------------|14--14--13--13----|14--14------------|14--14------------|
D|------------------|------------------|------------------|------------------|
A|12--12------------|12--12--11--11----|12--12------------|12--12------------|
E|------------------|------------------|------------------|------------------|

   D                                     E
E|------------------|------------------|------------------|------------------|
B|------------------|------------------|------------------|------------------|
G|11--11--11--11----|11--11--11--11----|13--13--13--13----|13--13--13--13----|
D|------------------|------------------|------------------|------------------|
A|-9---9---9---9----|-9---9---9---9----|11--11--11--11----|11--11--11--11----|
E|------------------|------------------|------------------|------------------|

Bridge:
------------------------------------------------------------------------------

Guitar 1:

   F#m7
E|------------------|------------------|------------------|------------------|
B|------------------|------------------|------------------|------------------|
G|--------11-----9--|------------------|--------11-----9--|------------------|
D|----------11------|------11----------|----------11------|------11----------|
A|-9---9------12----|--------1211--11--|-9---9------12----|--------1211--11--|
E|------------------|------------------|------------------|------------------|
   p.m.p.m.p.m.p.m.p.m.p.m.p.m.p.m.p.m.  p.m.p.m.p.m.p.m.p.m.p.m.p.m.p.m.p.m.

   F#m7
E|------------------|------------------|------------------|------------------|
B|------------------|------------------|------------------|------------------|
G|--------11-----9--|------------------|--------11-----9--|------------------|
D|----------11------|------11----------|----------11------|------------------|
A|-9---9------12----|--------1211--11--|-9---9------12----|------------------|
E|------------------|------------------|------------------|------------------|
   p.m.p.m.p.m.p.m.p.m.p.m.p.m.p.m.p.m.  p.m.p.m.p.m.

Guitar 1 (distorted):

   F#m           E                       F#m           E
E|------------------|------------------|------------------|------------------|
B|------------------|------------------|------------------|------------------|
G|---------------9--|---9-9---9---9-9--|---------------9--|---9-9---9---9-9--|
D|-4---4---x-x-x-9--|---9-9---9---9-9--|-4---4---x-x-x-9--|---9-9---9---9-9--|
A|-4---4---x-x-x-7--|---7-7---7---7-7--|-4---4---x-x-x-7--|---7-7---7---7-7--|
E|-2---2---x-x-x----|------------------|-2---2---x-x-x----|------------------|

   F#m           E                       D                  E
E|------------------|------------------|------------------|------------------|
B|------------------|------------------|------------------|------------------|
G|---------------9--|---9-9---9---9-9--|-7---7---7---7----|-9---9---9---9----|
D|-4---4---x-x-x-9--|---9-9---9---9-9--|-7---7---7---7----|-9---9---9---9----|
A|-4---4---x-x-x-7--|---7-7---7---7-7--|-5---5---5---5----|-7---7---7---7----|
E|-2---2---x-x-x----|------------------|------------------|------------------|

   F#m           E                       F#m           E
E|------------------|------------------|------------------|------------------|
B|------------------|------------------|------------------|------------------|
G|---------------9--|---9-9---9---9-9--|---------------9--|---9-9---9---9-9--|
D|-4---4---x-x-x-9--|---9-9---9---9-9--|-4---4---x-x-x-9--|---9-9---9---9-9--|
A|-4---4---x-x-x-7--|---7-7---7---7-7--|-4---4---x-x-x-7--|---7-7---7---7-7--|
E|-2---2---x-x-x----|------------------|-2---2---x-x-x----|------------------|

   F#m           E                        
E|------------------|------------------|
B|------------------|------------------|
G|---------------9--|---9-9---9---9-9--|
D|-4---4---x-x-x-9--|---9-9---9---9-9--|
A|-4---4---x-x-x-7--|---7-7---7---7-7--|
E|-2---2---x-x-x----|------------------|

   D                                     E
E|------------------|------------------|------------------|------------------|
B|------------------|------------------|------------------|------------------|
G|-7---7---7---7----|-7---7---7---7----|-9---9---9---9----|-9---9---9---9----|
D|-7---7---7---7----|-7---7---7---7----|-9---9---9---9----|-9---9---9---9----|
A|-5---5---5---5----|-5---5---5---5----|-7---7---7---7----|-7---7---7---7----|
E|------------------|------------------|------------------|------------------|

Guitar 2 (distorted):

   F#m           E                       F#m           E
E|------------------|------------------|------------------|------------------|
B|------------------|------------------|------------------|------------------|
G|11--11---------9--|---9-9---9---9-9--|---------------9--|---9-9---9---9-9--|
D|11--11---x-x-x-9--|---9-9---9---9-9--|11--11---x-x-x-9--|---9-9---9---9-9--|
A|-9---9---x-x-x-7--|---7-7---7---7-7--|11--11---x-x-x-7--|---7-7---7---7-7--|
E|---------x-x-x----|------------------|-9---9---x-x-x----|------------------|

   F#m           E                       D                  E
E|------------------|------------------|------------------|------------------|
B|------------------|------------------|------------------|------------------|
G|---------------9--|---9-9---9---9-9--|-7---7---7---7----|-9---9---9---9----|
D|11--11---x-x-x-9--|---9-9---9---9-9--|-7---7---7---7----|-9---9---9---9----|
A|11--11---x-x-x-7--|---7-7---7---7-7--|-5---5---5---5----|-7---7---7---7----|
E|-9---9---x-x-x----|------------------|------------------|------------------|

   F#m           E                       F#m           E
E|------------------|------------------|------------------|------------------|
B|------------------|------------------|------------------|------------------|
G|11--11---------9--|---9-9---9---9-9--|---------------9--|---9-9---9---9-9--|
D|11--11---x-x-x-9--|---9-9---9---9-9--|11--11---x-x-x-9--|---9-9---9---9-9--|
A|-9---9---x-x-x-7--|---7-7---7---7-7--|11--11---x-x-x-7--|---7-7---7---7-7--|
E|---------x-x-x----|------------------|-9---9---x-x-x----|------------------|

   F#m           E                       
E|------------------|------------------|
B|------------------|------------------|
G|---------------9--|---9-9---9---9-9--|
D|11--11---x-x-x-9--|---9-9---9---9-9--|
A|11--11---x-x-x-7--|---7-7---7---7-7--|
E|-9---9---x-x-x----|------------------|

   D                                     E
E|------------------|------------------|------------------|------------------|
B|------------------|------------------|------------------|------------------|
G|-7---7---7---7----|-7---7---7---7----|-9---9---9---9----|-9---9---9---9----|
D|-7---7---7---7----|-7---7---7---7----|-9---9---9---9----|-9---9---9---9----|
A|-5---5---5---5----|-5---5---5---5----|-7---7---7---7----|-7---7---7---7----|
E|------------------|------------------|------------------|------------------|

Guitar 3 (distorted):

   F#m           E                       F#m           E
E|------------------|------------------|------------------|------------------|
B|------------------|------------------|------------------|------------------|
G|14--14--------13--|--1313--13--1313--|14--14--------13--|--1313--13--1313--|
D|------------------|------------------|------------------|------------------|
A|12--12--------11--|--1111--11--1111--|12--12--------11--|--1111--11--1111--|
E|------------------|------------------|------------------|------------------|

   F#m           E                       D                  E
E|------------------|------------------|------------------|------------------|
B|------------------|------------------|------------------|------------------|
G|14--14--------13--|--1313--13--1313--|11--11--11--11----|13--13--13--13----|
D|------------------|------------------|------------------|------------------|
A|12--12--------11--|--1111--11--1111--|-9---9---9---9----|11--11--11--11----|
E|------------------|------------------|------------------|------------------|

   F#m           E                       F#m           E
E|------------------|------------------|------------------|------------------|
B|------------------|------------------|------------------|------------------|
G|14--14--------13--|--1313--13--1313--|14--14--------13--|--1313--13--1313--|
D|------------------|------------------|------------------|------------------|
A|12--12--------11--|--1111--11--1111--|12--12--------11--|--1111--11--1111--|
E|------------------|------------------|------------------|------------------|

   F#m           E                       
E|------------------|------------------|
B|------------------|------------------|
G|14--14--------13--|--1313--13--1313--|
D|------------------|------------------|
A|12--12--------11--|--1111--11--1111--|
E|------------------|------------------|

   D                                     E
E|------------------|------------------|------------------|------------------|
B|------------------|------------------|------------------|------------------|
G|11--11--11--11----|11--11--11--11----|13--13--13--13----|13--13--13--13----|
D|------------------|------------------|------------------|------------------|
A|-9---9---9---9----|-9---9---9---9----|11--11--11--11----|11--11--11--11----|
E|------------------|------------------|------------------|------------------|

Outro:
------------------------------------------------------------------------------

Guitars 1 & 2 (distorted):

   F#5
E|------------------|
B|------------------|
G|------------------|
D|-4----------------|
A|-4----------------|
E|-2----------------|


-----------------------------------------------------------------------------
If this tab was helpful and you're as big of a bandits fan as I am, be on the
lookout for more Rx Bandits tabs by yours truly.
Tap to rate this tab
# A B C D E F G H I J K L M N O P Q R S T U V W X Y Z