Song name
# A B C D E F G H I J K L M N O P Q R S T U V W X Y Z

Rx Bandits - Taking Chase As The Serpant Slithers tab

e|---------------------------------|
A|-----5p4-------------------------|
D|-------------------------6-------|
G|---6-----------6-----4-----4---4-|
B|-4-----------4---0-2---2-----2---|
E|---------0-2---------------------|

e|---------------------------------|
A|-----5p4-------------------------|
D|-------------------------66666---|
G|---6-----------6-----4-----------|
B|-4-----------4---0-2---2-------2-|
E|---------0-2---------------------|

Go ahead and repeat that...a lot.

I think the reggae up-beat thing in the verse is C#m/C#m/F#m/B but I'm unsure.  What I'm 
sure about is the chorus being E/B/C#m.

Live it; Love it.

~Kevvy
kevnleblanc@hotmail.com

Email me if you figure out more.
Tap to rate this tab
# A B C D E F G H I J K L M N O P Q R S T U V W X Y Z