Song name
# A B C D E F G H I J K L M N O P Q R S T U V W X Y Z

Ry Cooder - Married Mans A Fool tab

From the Album 'Paradise and Lunch'
Transcribed completely by ear excluding the solo which any slide player should be able 
to figure out in less than 10 minutes
apologies for any inaccuracies
Standard tuning

Verse 1

  E                A    E

E------------------0----0--------------|
B----9--9-9--------2----0--------------|
G----9--9-11p9-----2--0h1--------------|
D----9--9-9----9---2----2--------------|
A-7----------------0-------------------|
E-----------------------0--------------|



E-----------------0--------------------|
B----9-9-9-9------0-----4-5-4-4--------|
G----9-9-9-9------2-----4-4-4-4--------|
D----9-9-9-9------2-----4-6-4-4--------|
A-7---------------1--------------------|
E--------------------------------------|


E-----------------------------------------4----6-----------2-|
B----9-9-9-9---0-0----2-2---0------------5-----7----------4--|
G----9-9-9-9---2-2----2-2---2-----------4------6---------4---|
D----9-9-9-9---2-2----2-2---2---------------------------4----|
A-7------------1-1----0-0---1--------------------------------|
E------------------------------------------------------------|


E---------------------------------------|
B--------------9----------2-----------4-|
G--------------9----------2-----------4-|
D------1-2-----9----------2-----------4-|
A-2-4------------------0-------2-4-2----|
E------------------2-4------------------|

Chorus

E------------0-------------------------------------|
B----9---0---2--0-----------------9--------4-4-5-4-|
G----9---1---2--2p0h1-------------9--1-1---4-4-4-4-|
D----9---2---2--2-----------------9--2-2---4-4-6-4-|
A--------2---0--2--------------------2-2-----------|
E--------------------------------------------------|


Verse 2

E-------------------|
B-------------------|
G-------------------|
D-------------------|
A-------------------|
E--0--2/4--4/5-5/7--|


And that is essentially the bones of the song.
Tap to rate this tab
 
# A B C D E F G H I J K L M N O P Q R S T U V W X Y Z