Song name
# A B C D E F G H I J K L M N O P Q R S T U V W X Y Z

Ry Cooder - Southern Comfort tab

#----------------------------------PLEASE NOTE---------------------------------#
#This file is the author's own work and represents their interpretation of the #
#song. You may only use this file for private study, scholarship, or research. #
#------------------------------------------------------------------------------##

Southern Comfort by Ry Cooder
From the 1981 film by Walter Hill

Tabbed from https://www.youtube.com/watch?v=924ip7wWf-o and ear...

Soothing guitar piece from the amazing movie.
try to do it with slide, or, if you are unsure how to do it, use your finger to bar the strings.
Just listen to the record to figure out the rhythm.

Main riff: (you can throw this in anytime)
D |-----------------------------------------------------------------------------------------|
A |-----------------------------------------------------------------------------------------|
F#|-----------------------------------------------------------------------------------------|
D |-7/9/12---12/7---7/9---------------------------------------------------------------------|
A |-7/9/12---12/7---7/9---------------------------------------------------------------------|
D |-7/9/12---12/7---7/9---------------------------------------------------------------------|


D |-----------------0------0-----------------------------------------------------------------|
A |-------9---9---7--0---9--0----------------------------------------------------------------|
F#|------8---8---8------8----0------7-7h8-7--------------------------------------------------|
D |--------------------------------7---------------------------------------------------------|
A |-------------------------------7----------------------------------------------------------|
D |-9--9----9---9------9---------7-----------------------------------------------------------|


D |--------------4--2---0------------------0-0----------------------------------------------|
A |------------------0---0------------------------------------------------------------------|
F#|------------0------0---0-------3---------------------------------------------------------|
D |-0-0h2/4---0----------------0h2----3/5------0--------------------------------------------|
A |-0-0h2/4--2----------------0-------3/5---------------------------------------------------|
D |-0-0h2/4---------------------------3/5---------------------------------------------------|


D |-----------------------------------------------------------------------------------------|
A |-----------------------------------------------------------------------------------------|
F#|------------3------------3-3-3------3----------------------------------------------------|
D |-0-0h2/4---2-2-4-4-2-----2-2-0--0h2-0----------------------------------------------------|
A |-0-0h2/4--0----------0----------------2-0-2----------------------------------------------|
D |-0-0h2/4---------------------------------------------------------------------------------|


D |-----------------------------------------------------------------------------------------|
A |------9-9---9-----7-7-7--7-0---9-9-9-----------------------------------------------------|
F#|------8-8---8-8---8-8-8-----0--8-8-8-8------7---8-8-7------------------------------------|
D |-7/9-----------0----------------------0-------7-7-7-7-7----------------------------------|
A |-7/9------0-----0-------------------------7-------------7--------------------------------|
D |-7/9-------------------------------------7-----------------------------------------------|

D |------------4-4-2-2-4--2-0-------------------------------------------------------------------0---|
A |------------0-0-0-0-0--0-------------------------------------------------------------------------|
F#|--------------------0-----------------------------3-3-------3-3-3-----3-3-3-------------------0--|
D |-0-0h2/4------------0-0-----3/5------0----0--0----2-2h4-4r2-2-2-0-0h2-4-2-0----------------------|
A |-0-0h2/4-2----------2-------3/5--0h2---0-4--2--0---0------------------------0-2----------0-2-----|
D |-0-0h2/4--------------------3/5-------------------------------------------------0-0h2/4----------|


D |----------------0------------------------------------------------------------------------|
A |-----------------------------------------------------------------------------------------|
F#|-----------------------------------------5-----------------------------------------------|
D |-0-0h2/5--0-0h2/5--0-----0----0----2/5--5------------------------------------------------|
A |-0-0h2/5--0-0h2/5--0--0h2-2--------2/5-----0---------------------------------------------|
D |-0-0h2/5--0-0h2/5--0--------4---4--2/5---------------------------------------------------|


D |-4-2-2-2-0-2/4-2-2-2-------------------4-4-0---------------------------------------------|
A |-5-0-0-0-0-0-0-0-0-0-----------------0-5-5-0---------------------------------------------|
F#|-------------------------------5----------------5-------------------3-3-3-----3-3--------|
D |------------------------2/5--2/5--0-----------2/5-0-----0-----------2-2-0-2h4-4-2--------|
A |------------------------2/5--2/5--0-----------2/5-0-0h2----------------------------------|
D |------------------------2/5--2/5--0-----------2/5-0-------0-0-0h2/4----------------------|


D |-----------------------------------------------------------------------------------------|
A |-----------------------------------------------------------------------------------------|
F#|--3-3-3---3---3--------------------------------------------------------------------------|
D |--2-2-0-2h4-4r2--0-----------------------------------------------------------------------|
A |-------------------0-2----0-2------------------------------------------------------------|
D |-----------------------0h4-4-------------------------------------------------------------|


Outro (as many times as you want)

D |-----------------------------------------------------------------------------------------|
A |-----------------------------------------------------------------------------------------|
F#|-----------------------------------------------------------------------------------------|
D |-7/9/12---12/7---7/9---------------------------------------------------------------------|
A |-7/9/12---12/7---7/9---------------------------------------------------------------------|
D |-7/9/12---12/7---7/9---------------------------------------------------------------------|
Tap to rate this tab
 
# A B C D E F G H I J K L M N O P Q R S T U V W X Y Z