Song name
# A B C D E F G H I J K L M N O P Q R S T U V W X Y Z

Ry Cooder - I Think Everything Will Work Out Fine tab

               I Think Everything Will Work Out Fine- Ry Cooder

Tabbed by: Zamboni
Email: yowzenwutzee@hotmail.com

Tuning: Standard

e|--4h5-7------------4----4-4h5-7-------------------------------------------|
B|--5-----5--5-4-5h7------5-5-----5--5-4-5h7-5------------------------------|
G|--------------------------------------------------------------------------|
D|--------------------------------------------------------------------------|
A|--------------------------------------------------------------------------|
E|--------------------------------------------------------------------------|

e|--4h5-7------------4----4-4h5-7-------------------------------------------|
B|--5-----5--5-4-5h7------5-5-----5--5-4-5h7-5------------------------------|
G|--------------------------------------------------------------------------|
D|--------------------------------------------------------------------------|
A|--------------------------------------------------------------------------|
E|--------------------------------------------------------------------------|


| /  slide up
| \  slide down
| h  hammer-on
| p  pull-off
| ~  vibrato
| +  harmonic
| x  Mute note
=============================================================================
Tap to rate this tab
 
# A B C D E F G H I J K L M N O P Q R S T U V W X Y Z