Song name
# A B C D E F G H I J K L M N O P Q R S T U V W X Y Z

Ry Cuming - Always Remember Me tab

Ry Cumming
http://www.rycuming.com/

Always Remember Me


Intro:

E|------------------------------------------------------------------|
B|------------------------------------------------------------------|
G|--1--1----1--1----1--1----1--1----1--1----1--1----1--1----1--1----|
D|---2--2----2--2----2--2----2--2----2--2----2--2----2--2----2--2---|
A|--0-------0-------0-------0---------------------------------------|
E|----------------------------------0-------0-------0-------0-------|

E|------------------------------------------------------------------|
B|------------------------------------------------------------------|
G|--1--1----1--1----1--1----2--4----1--1----1--1----1--1----1--1----|
D|---2--2----2--2----2--2---2--4-----2--2----2--2----2--2----2--2---|
A|--0-------0-------0-----------------------------------------------|
E|----------------------------------0-------0-------0-------0-------|


Verse:

  Two by two lovers stand on the beach in Santa Monica
E|-------------------------------------------------------------------|
B|-------------------------------------------------------------------|
G|--1--1----1--1----1--1----1--1----1--1----1--1----1--1----1--1-----|
D|----2--2----2--2---2--2----2--2----2--2----2--2----2--2----2--2----|
A|--0-------0-------0-------0----------------------------------------|
E|----------------------------------0-------0-------0-------0--------|

  Pretty eyes, long hair, smells so sweet like summer in the air
E|---------------------------------------------------------------|
B|---------------------------------------------------------------|
G|--1--1----1--1----1--1----1--1----1--1----1--1----1--1----1----|
D|----2--2----2--2---2--2----2--2----2--2----2--2----2--2--------|
A|--0-------0-------0-------0------------------------------------|
E|----------------------------------0-------0-------0-------0----|


Chorus:
 Watch me as I fall                ...into the water calling 
E|--------------------------------------------0---0---0--4-------------|
B|---------------------------2--2----2--4-------2---2-------4--4---4---|
G|--------------2--2---2--4----2--2---------------------------4--4-----|
D|----------------2--2-----------------------------------2-------------|
A|---------------------------0-------0--0-----4-------4-----2------2---|
E|--------------2------2--4--------------------------------------------|

Watch me as I sink                  ...into the sea and always remember...
E|--------------------------------------------0---0---0--4---------------|
B|---------------------------2--2----2--4-------2---2-------4--4---4--4--|
G|--------------2--2---2--4----2--2---------------------------4--4---4--4|
D|----------------2--2-----------------------------------2---------------|
A|---------------------------0-------0--0-----4-------4-----2------2-----|
E|--------------2------2--4----------------------------------------------|

           ... me.
E|--------------|
B|--4--4---4----|
G|----4--4------|
D|--------------|
A|--2------2----|
E|--------------|



E|------------------------------------------------------------------|
B|------------------------------------------------------------------|
G|--1--1----1--1----1--1----2--4----1--1----1--1----1--1----1--1----|
D|---2--2----2--2----2--2---2--4-----2--2----2--2----2--2----2--2---|
A|--0-------0-------0-----------------------------------------------|
E|----------------------------------0-------0-------0-------0-------|

E|------------------------------------------------------------------|
B|------------------------------------------------------------------|
G|--1--1----1--1----1--1----2--4----1--1----1--1----1--1----1--1----|
D|---2--2----2--2----2--2---2--4-----2--2----2--2----2--2----2--2---|
A|--0-------0-------0-----------------------------------------------|
E|----------------------------------0-------0-------0-------0-------|

Verse 2:
 Come back,back to me, back to where the mountains meet the sea
E|-------------------------------------------------------------------|
B|-------------------------------------------------------------------|
G|--1--1----1--1----1--1----1--1----1--1----1--1----1--1----1--1-----|
D|----2--2----2--2---2--2----2--2----2--2----2--2----2--2----2--2----|
A|--0-------0-------0-------0----------------------------------------|
E|----------------------------------0-------0-------0-------0--------|

We'll build a house of driftwood and keep it simple cause simple is good
E|---------------------------------------------------------------|
B|---------------------------------------------------------------|
G|--1--1----1--1----1--1----1--1----1--1----1--1----1--1----1----|
D|----2--2----2--2---2--2----2--2----2--2----2--2----2--2--------|
A|--0-------0-------0-------0------------------------------------|
E|----------------------------------0-------0-------0-------0----|


Chorus


E|------------------------------------------------------------------|
B|------------------------------------------------------------------|
G|--1--1----1--1----1--1----2--4----1--1----1--1----1--1----1--1----|
D|---2--2----2--2----2--2---2--4-----2--2----2--2----2--2----2--2---|
A|--0-------0-------0-----------------------------------------------|
E|----------------------------------0-------0-------0-------0-------|

E|------------------------------------------------------------------|
B|------------------------------------------------------------------|
G|--1--1----1--1----1--1----2--4----1--1----1--1----1--1----1--1----|
D|---2--2----2--2----2--2---2--4-----2--2----2--2----2--2----2--2---|
A|--0-------0-------0-----------------------------------------------|
E|----------------------------------0-------0-------0-------0-------|


Chorus


Outro:

E|------------------------------------------------------------------|
B|------------------------------------------------------------------|
G|--1--1----1--1----1--1----1--1----1--1----1--1----1--1----1--1----|
D|---2--2----2--2----2--2----2--2----2--2----2--2----2--2----2--2---|
A|--0-------0-------0-------0---------------------------------------|
E|----------------------------------0-------0-------0-------0-------|

E|------------------------------------------------------------------|
B|------------------------------------------------------------------|
G|--1--1----1--1----1--1----2--4----1--1----1--1----1--1----1-------|
D|---2--2----2--2----2--2---2--4-----2--2----2--2----2--2-----------|
A|--0-------0-------0-----------------------------------------------|
E|----------------------------------0-------0-------0-------0-------|
Tap to rate this tab
 
# A B C D E F G H I J K L M N O P Q R S T U V W X Y Z