Song name
# A B C D E F G H I J K L M N O P Q R S T U V W X Y Z

Ry Cuming - Some Kind Of Love tab

Ry's first song off his debut album. I figured out how to play this by watching his 
acoustic stuff online.

Standard Tuning

INTRO
-----

Guitar 1
e|------------------------------------------------|
b|------------------------------------------------|
g|--12-12-12-11-11-11-11--9--9--9-11-11-11-11-11--|
d|---0--0--0--0--0--0--0--0--0--0--0--0--0--0--0--| x2
a|---x--x--x--x--x--x--x--x--x--x--x--x--x--x--x--|
E|--10-10-10-10-10-10-10-10-10-10-10-10-10-10-10--|

                                                     (Play Throughout)
e|------------------------------------------------|
b|------------------------------------------------|
g|--12-12-12-11-11-11-11--9--9--9-11-11-11-11-11--|
d|---0--0--0--0--0--0--0--0--0--0--0--0--0--0--0--| x2
a|--10-10-10-10-10-10-10-10-10-10-10-10-10-10-10--|
E|------------------------------------------------|

Guitar 2
e|------------------------------------------------|
b|------------------------------------------------|
g|--11/14-14-14-----7--9-----9--9--/--7--7--7--7--|
d|---x--x--x--x-----x--x-----x--x-----x--x--x--x--|
a|---9-12-12-12-----5--7-----7--7-----5--5--5--5--|
E|------------------------------------------------|


e|------------------------------------------------|
b|------------------------------------------------|
g|--11/14-14-14-----7--9-----9--9--/-19-19-19-19--|
d|---x--x--x--x-----x--x-----x--x-----x--x--x--x--|
a|---9-12-12-12-----5--7-----7--7----17-17-17-17--|
E|------------------------------------------------|


VERSE IS THE SAME AS THE GUITAR 1 INTRO.


Pre-Chorus
e|------------------------------------------------|
b|------------------------------------------------|
g|--6-------------11-------------4-----4--4--4--4-|
d|-(7)-----------(12)-----------(5)---(5)(5)(5)(5)| Play until Chorus
a|--x--------------x-------------x-----x--x--x--x-|
E|--5-------------10-------------3-----3--3--3--3-|


Chorus
CHORDS USED IN CHORUS
e|-0-|
b|-3-|
g|-0-|
d|-4-| or normal D Chord
a|-5-|
E|(5)|

e|-0---------|
b|-1---------|
g|-2---------|
d|-2---------|
a|-0----2--3-|
E|(0)--------|

e|-0-|
b|-1-|
g|-0-|
d|-2-|
a|-3-|
E|(3)|

e|-0-|
b|-0-|
g|-0-|
d|-0-| or normal G Chord
a|-2-|
E|-3-|

Any note in parentheses means it is an optional note.

Well that's pretty much it. If anything is wrong just tell me and I'll fix it. Thanks!
Tap to rate this tab
# A B C D E F G H I J K L M N O P Q R S T U V W X Y Z