Song name
# A B C D E F G H I J K L M N O P Q R S T U V W X Y Z

Ry X - Berlin tab

------------------------------------------------------------
                                           Berlin - RY X
------------------------------------------------------------


The Song from the Sony 4k TV Ad. "Tabbed" from this Video:
http://www.youtube.com/watch?v=E42hnfyn4IE

Tabbed by: Mobanez
E-Mail: rolivier@abwesend.de



Gtr I (E A D G B E)

|---------------------------|
|---------------------------|
|-2-4-5-4-2---12-11-16-9----|
|---------------------------|
|---------------------------|
|-2-3-5-3-2---11-10-15-8----|

Play it like this and listen for the timing:

|--------------------------------|
|--------------------------------|
|---2---2---2---2---4---4---4----|
|--------------------------------|
|--------------------------------|
|-2---2---2---2---3---3---3--....|
Tap to rate this tab
# A B C D E F G H I J K L M N O P Q R S T U V W X Y Z