Song name
# A B C D E F G H I J K L M N O P Q R S T U V W X Y Z

Ryan Adams - Hey There Mrs Lovely tab

"Hey There Mrs. Lovely" - Ryan Adams
Tabbed by: Jake Wood


Capo on 3rd fret

[Intro]

    G          D            A         C                                 x3
-|----3-----3-----3-----------3-----3-----3-----------------------------|-
-|----3-----3-----3-----------3-----3-----3-----------------------------|-
-|----0-----0-----0--2h4p2-0--0-----0-----0-------0---------------------|-
-|-------------0------------2----------------0h2-2----------------------|-
-|------0h2---------------------------2h3-------------------------------|-
-|--3-------------------------------------------------------------------|-

    G          D            A          C                                 
-|----3-----3-----3-----------3-----3-----3-----3-----------------------|-
-|----3-----3-----3-----------3-----3-----3-----3-----------------------|-
-|----0-----0-----0--2h4p2-0--0-----0-----0-----0-----------------------|-
-|-------------0------------2-------------------------------------------|-
-|------0h2----------------------------3--------------------------------|-
-|--3-------------------------------------------------------------------|-
 
       G               D          Am             C
Well girl sometimes I feel just a boy
Put here on the earth for you to toy round with
I'm the plastic 3-inch armies you destroy
I'm the monster underneath your bed you ain't afraid of yet


[Pre-Chorus]

    Gmaj    G/C     D                                        
-|----0-------0-------2-----2-------------------------------------------|-
-|----3-------3-------3-----3-------------------------------------------|-
-|----0-------0-------2-----2-------------------------------------------|-
-|----0-------x-----0---------------------------------------------------|-
-|--2-------3-----------------------------------------------------------|-
-|----------------------------------------------------------------------|- 

              Gmaj   G/C   D
And    she    let    me    in
And    I      feel   all   right
Yeah   I      feel   all   right


[Chorus]

   G      D/F#   F     C x2     G   D/F#  F    E      Am  Gsus  D x2        
|--3------0------x-----0--|  |--3----0----x----0-|  |-0---------2--|-
|--3------3------x-----1--|  |--3----3----x----0-|  |-1----3----3--|-
|--0------2------2-----0--|  |--0----2----2----1-|  |-2----0----2--|-
|--0------0------3-----2--|  |--0----0----3----2-|  |-2----x----0--|-
|--2------x------3-----3--|  |--2----x----3----2-|  |-0----x-------|-
|--3------2------1--------|  |--3----2----1----0-|  |------3-------|-

       G		       D/F#             Am          C
Hey there Mrs. Lovely, are you coming out to play
          G                D/F#      Am               C                  
I've been stranded on your door step every night and day
         G     D/F#  F    E                   Am   Gsus    D
And  I  want   you   so  bad, but  when  you  cry  I  get  scared
        Am                  Gsus         D
I wanna dry your eyes with cinnamon and pears


[Fill]

-|-----------------|-
-|-----------------|-
-|--2h4p2-0--------|-
-|-----------------|-
-|-----------------|-
-|----------2h3----|-


Intro x2


You used to only want your two front teeth
But Christmas time yeah it came it went and you ended up with me
So we started playing Twister with our tongues 
Well we probably should have scrapped the game and gave ourselves some hugs

And I toy with you
And you toy with me
Can you stop this please?

Hey there Mrs. Lovely, are you coming out to play
I've been stranded on your door step every night and day
And I want you so bad but when you cry I get scared
I wanna dry your eyes with cinnamon and pears

Tap to rate this tab
# A B C D E F G H I J K L M N O P Q R S T U V W X Y Z