Song name
# A B C D E F G H I J K L M N O P Q R S T U V W X Y Z

Ryan Adams - Note To Self Dont Die tab

-------------------------------------------------------------------------------
			     Note To Self: Don't Die - Ryan Adams
-------------------------------------------------------------------------------
Tabbed by: TheTroy
Tuning: Standard

INTRO
e|---------------------------------------------------------------------------|
B|---------------------------------------------------------------------------|
G|------5------------8-(8)--3-3/5-5------------------------------------------|
D|-3/5--5--3/5-(5)---8-(8)--3-3/5-5------------------------------------------|
A|-3/5--3--3/5-(5)---6-(6)--1-1/3-3------------------------------------------|
E|-1/3-----1/3-(3)-----------------------------------------------------------|

VERSE (This is what I do! not what he does. i do this cause i have no idea
what ryan is really doing)
e|---------------------------------------------------------------------------|
B|---------------------------------------------------------------------------|
G|-----------------5---------------------------------------------------------|
D|-3/5-3/5-3/5-3/5-5-5-------------------------------------------------------|
A|-3/5-3/5-3/5-3/5-3-5-------------------------------------------------------|
E|-1/3-1/3-1/3-1/3---3-------------------------------------------------------|

CHORUS (same as intro)

VERSE

CHORUS (sames as first)

BRIDGE
e|---------------------------------------------------------------------------|
B|---------------------------------------------------------------------------|
G|---------------------------5-5---------------------------------------------|
D|-3-3-3-3-3-3-3-3-3-3-3-3-3-5-5-5-5-----------------------------------------|
A|-3-3-3-3-3-3-3-3-3-3-3-3-3-3-3-5-5-----------------------------------------|
E|-1-1-1-1-1-1-1-1-1-1-1-1-1-----3-3-----------------------------------------|

PLAY CHORUS TO END


BYE!!!!!!!!!!!!!!!!!!!!!!!!!!!!!!!!!!!

Tap to rate this tab
# A B C D E F G H I J K L M N O P Q R S T U V W X Y Z