Song name
# A B C D E F G H I J K L M N O P Q R S T U V W X Y Z

Ryan Adams - Wonderwall tab

Ryan Adams - Wonderwall

Guitar 1 - capo 3

Guitar 2 - capo 8


Intro/Verse 1

gtr 1 capo 3
e||-------0---------------0---------|-------0---------------0---------||
B||---3-------3---3---3-------3---3-|---3-------3---3---3-------3---3-||
G||-----0-------0-------0-------0---|-----0-------0-------0-------0---||     X 5
D||---------------------------------|-0-------------------------------||
A||---------------------------------|-----------------0---------------||
E||-0---------------3---------------|---------------------------------||

                                                                             then

e||-------0---------------0---------|---------------0-----------------||
B||---3-------1---1---3-------3---3-|-------3---------------3-------3-||
G||-----0-------0-------0-------0---|---0-------0-------0-------0-----||     X 1
D||-----------------0---------------|-----2-------2-------2-------2---||
A||-3-------------------------------|---------------------------------||
E||---------------------------------|-0-------------------------------||

-----------------------------------------------------------------------------------

Verse 2

gtr 1 capo 3
e||-------0---------------0---------|-------0---------------0---------||
B||---3-------3---3---3-------3---3-|---3-------3---3---3-------3---3-||
G||-----0-------0-------0-------0---|-----0-------0-------0-------0---||
D||---------------------------------|-0-------------------------------||
A||---------------------------------|-----------------0---------------||
E||-0---------------3---------------|---------------------------------||

e||-------0---------------0---------|-------0---------------0---------||
B||---3-------3---3---3-------3---3-|---3-------3---3---3-------3---3-||
G||-----0-------0-------0-------0---|-----0-------0-------0-------0---||
D||---------------------------------|-0-------------------------------||
A||---------2-----------------------|-----------------0---------------||
E||-0---------------3---------------|---------------------------------||

e||-------0---------------0---------|-------0---------------0---------||
B||---3-------3---3---3-------3---3-|---3-------3---3---3-------3---3-||
G||-----0-------0-------0-------0---|-----0-------0-------0-------0---||
D||---------------------------------|-0-------------------------------||
A||---------------------------------|-----------------0---------------||
E||-0---------------3---------------|---------------------------------||

e||---------------------------------|---------------0---------------0-||
B||---3---3-----------3---3---------|-------3---------------3---------||
G||-----0-----0---0-----0-----0---0-|---0-------0-------0-------0-----||
D||-------------2---0-----------2---|-----2-------2-------2-------2---||
A||-3-------------------------------|---------------------------------||
E||---------------------------------|-0-------------------------------||

-----------------------------------------------------------------------------------

Pre-chorus

e||-------0---------------0---------|-----------0-----------0---------||
B||---3-------3---3---3-------3---3-|---3-----------------------3---3-||
G||-----0-------0-------0-------0---|---------------0-------------0---||
D||-----------------0---------------|-----0h2-------------------------||
A||-3-------------------------------|---------------------------------||
E||---------------------------------|-0-----------------0-------------||

e||-------0-------------------------|---------------------------------||
B||---3-------3---3---3---3-------3-|-------3-------3-------3-------3-||
G||-----0-------0-------0-----0-----|---0-------0-------0-------0-----||
D||-----------------0-----------2---|-----2-------2-------2-------2---||
A||-3-------------------------------|---------------------------------||
E||---------------------------------|-0-------------------------------||

e||-------0---------------0---------|-------------------------------0-||
B||---3-------3---3---3-------3---3-|---3---3---3---3---3---3---3-----||
G||-----0-------0-------0-------0---|-----0-------0-------0-------0---||
D||-----------------0---------------|-------------------------0-------||
A||-3-------------------------------|---------------------------------||
E||---------------------------------|-3-------2-------0---------------||

e||-----------------------0---------|------0----------------0---------||
B||-------3-------3---------------3-|--------------3----------------3-||
G||---0-------0-------0-------0-----|--0-------0--------0-------0-----||
D||-----2-------2-------2-------2---|----2-------2--------2-------2---||
A||-0-------------------------------|---------------------------------||
E||---------------------------------|---------------------------------||

----------------------------------------------------------------------------------

Chorus

e||-------0---------------0---------|-------0---------------0---------||
B||---3-------3---3---3-------3---3-|---3-------3---3---3-------3---3-||
G||-----0-------0-------0-------0---|-----0-------0-------0-------0---||
D||---------------------------------|---------------------------------||
A||-3-------------------------------|---------------------------------||
E||-----------------0---------------|-3---------------0---------------||

e||-------0-------------------------|-------0---------------0---------||
B||---3-------3---3---3---3-------3-|---3-------3---3---3-------3---3-||
G||-----0-------0-------0-----0-----|-----0-------0-------0-------0---||
D||-----------------------------2---|---------------------------------||
A||-3-------------------------------|---------------------------------||
E||-----------------0---------------|-3---------------0---------------||

e||-------0---------------0---------|-------0---------------0---------||
B||---3-------3---3---3-------3---3-|---3-------3---3---3-------3---3-||
G||-----0-------0-------0-------0---|-----0-------0-------0-------0---||
D||---------------------------------|---------------------------------||
A||-3-------------------------------|---------------------------------||
E||-----------------0---------------|-3---------------0---------------||

e||-------0---------------0---------|-------0-------------------------||
B||---3-------3---3---3-------3---3-|---3-------3----(3)--------------||
G||-----0-------0-------0-------0---|-----0---------(0)---------------||
D||---------------------------------|--------------(2)----------------||
A||-3-------------------------------|-------------(2)-----------------||
E||-----------------0---------------|-3-----------0-------------------||

-----------------------------------------------------------------------------------

Verse 3

gtr1 capo 3
e||-------0---------------0---------|-------0---------------0---------||
B||---3-------3---3---3-------3---3-|---3-------3---3---3-------3---3-||
G||-----0-------0-------0-------0---|-----0-------0-------0-------0---||        111
D||---------------------------------|-0-------------------------------||      11111
A||---------------------------------|-----------------0---------------||     111111
E||-0---------------3---------------|---------------------------------||        111
 ||                                                                   ||        111
gtr2 capo 8                                                           ||        111
e||-------2-------2-------0-------0-|-------0-------0-------2-------2-||        111
B||---0-------0-------0-------0-----|---0-------0-------0-------0-----||        111
G||-----2-------2-------2-------2---|-----2-------2-------2-------2---||        111
D||---------------------------------|---------------------------------||     111111111
A||---------------------------------|---------------------------------||     111111111
E||---------------------------------|---------------------------------||

e||-------0---------------0---------|-------0---------------0---------||
B||---3-------3---3---3-------3---3-|---3-------3---3---3-------3---3-||
G||-----0-------0-------0-------0---|-----0-------0-------0-------0---||       22222
D||---------------------------------|-0-------------------------------||     222222222
A||---------------------------------|-----------------0---------------||    222     222
E||-0---------------3---------------|---------------------------------||            222
 ||                                                                   ||          2222
 ||                                                                   ||         2222
e||-------2-------0-------0-------0-|-------0-------0-------2-------2-||        2222
B||---0-------0-------0-------0-----|---0-------0-------0-------0-----||      2222
G||-----2-------2-------2-------2---|-----2-------2-------2-------2---||     222
D||---------------------------------|---------------------------------||    22222222222
A||---------------------------------|---------------------------------||    22222222222
E||---------------------------------|---------------------------------||

e||-------0---------------0---------|-------0---------------0---------||
B||---3-------3---3---3-------3---3-|---3-------3---3---3-------3---3-||        33333
G||-----0-------0-------0-------0---|-----0-------0-------0-------0---||      333333333
D||---------------------------------|-0-------------------------------||     333     333
A||---------------------------------|-----------------0---------------||             333
E||-0---------------3---------------|---------------------------------||             333
 ||                                                                   ||           333
 ||                                                                   ||           333
e||-------2-------0-------0-------0-|-------0-------0-------2-------2-||             333
B||---0-------0-------0-------0-----|---0-------0-------0-------0-----||             333
G||-----2-------2-------2-------2---|-----2-------2-------2-------2---||     333     333
D||---------------------------------|---------------------------------||      333333333
A||---------------------------------|---------------------------------||        33333
E||---------------------------------|---------------------------------||

e||-------0---------------0---------|---------------0-----------------||
B||---3-------1---1---3-------3---3-|-------3---------------3-------3-||
G||-----0-------0-------0-------0---|---0-------0-------0-------0-----||          444
D||-----------------0---------------|-----2-------2-------2-------2---||         4444
A||-3-------------------------------|---------------------------------||        44444
E||---------------------------------|-0-------------------------------||       44 444
 ||                                                                   ||      44  444
 ||                                                                   ||     44444444444
e||-------0-------0-------2-------0-|-------0-------0-------0-------0-||     44444444444
B||---0-------0-------0-------0-----|---0-------0-------0-------0-----||          444
G||-----2-------2-------2-------2---|-----2-------2-------2-------2---||          444
D||---------------------------------|---------------------------------||          444
A||---------------------------------|---------------------------------||       444444444
E||---------------------------------|---------------------------------||

-----------------------------------------------------------------------------------

Pre-chorus

e||-------0---------------0---------|---------------------------------||
B||---3-------3---3---3-------3---3-|-------3---------------3---------||
G||-----0-------0-------0-------0---|---0-------0---0---0-------0---0-||        111
D||-----------------0---------------|-----2-------2-------2-------2---||      11111
A||-3-------------------------------|---------------------------------||     111111
E||---------------------------------|-0-------------------------------||        111
 ||                                                                   ||        111
 ||                                                                   ||        111
e||---------------------------------|---------------------------------||        111
B||---0---2---0---0---0---2---0---0-|---0---2---0---0---0---2---0---0-||        111
G||-0---0-------0---2---2-------2---|-----2-------2-------2-------2---||        111
D||---------------------------------|---------------------------------||     111111111
A||---------------------------------|---------------------------------||     111111111
E||---------------------------------|---------------------------------||

e||-------0---------------0---------|---------------------------------||
B||---3-------3---3---3-------3---3-|-------3-------3-------3-------3-||
G||-----0-------0-------0-------0---|---0-------0-------0-------0-----||       22222
D||-----------------0---------------|-----2-------2-------2-------2---||     222222222
A||-3-------------------------------|---------------------------------||    222     222
E||---------------------------------|-0-------------------------------||            222
 ||                                                                   ||          2222
 ||                                                                   ||         2222
e||---------------------------------|---------------------------------||        2222
B||---0---2---0---0---0---2---0---0-|---0---2---0---0---0---0---------||      2222
G||-0---0-------0---2---2-------2---|-----2-------2-------2-----2---0-||     222
D||---------------------------------|---------------------------------||    22222222222
A||---------------------------------|---------------------------------||    22222222222
E||---------------------------------|---------------------------------||

e||-------0---------------0---------|---------------------------------||
B||---3-------3---3---3-------3---3-|---3---3---3---3---3---3---3---3-||        33333
G||-----0-------0-------0-------0---|-----0-------0-------0-------0---||      333333333
D||-----------------0---------------|-------------------------0-------||     333     333
A||-3-------------------------------|---------------------------------||             333
E||---------------------------------|-3-------2-------0---------------||             333
 ||                                                                   ||           333
 ||                                                                   ||           333
e||---------------------------------|---------------------------------||             333
B||---0---3---0---0---0---3---0---0-|---------------------------------||             333
G||-0---0-------0---2---2-------2---|---2---2---2---2---2---2---2---2-||     333     333
D||---------------------------------|-----0-------0-------0-------0---||      333333333
A||---------------------------------|---------------------------------||        33333
E||---------------------------------|---------------------------------||

e||---------------------------------|---------------------------------||
B||-------3---------------3---------|------3----------------3---------||
G||---0-------0---0---0-------0---0-|--0-------0---0----0-------0---0-||          444
D||-----2-------2-------2-------2---|----2-------2--------2-------2---||         4444
A||-0-------------------------------|---------------------------------||        44444
E||---------------------------------|---------------------------------||       44 444
 ||                                                                   ||      44  444
 ||                                                                   ||     44444444444
e||-------------------------------2-|-------0-------2-------0-------0-||     44444444444
B||---------------3-------0---------|---------------------------------||          444
G||---2---2---2-------2-------2-----|---2-------2-------2-------2-----||          444
D||-0---0-------0-------0-------0---|-----0-------0-------0-------0---||          444
A||---------------------------------|---------------------------------||       444444444
E||---------------------------------|---------------------------------||

-----------------------------------------------------------------------------------

Chorus

e||-------0---------------0---------|-------0---------------0---------||
B||---3-------3---3---3-------3---3-|---3-------3---3---3-------3---3-||
G||-----0-------0-------0-------0---|-----0-------0-------0-------0---||        111
D||---------------------------------|---------------------------------||      11111
A||-3-------------------------------|---------------------------------||     111111
E||-----------------0---------------|-3---------------0---------------||        111
 ||                                                                   ||        111
 ||                                                                   ||        111
e||---------------------------------|-----------------------2---0-----||        111
B||-------3-------0-------3-------0-|-------3-------0---------------0-||        111
G||---2-------2-------2-------2-----|---2-------2-------2-------------||        111
D||-----0-------0-------0-------0---|-----0-------0-------0-----------||     111111111
A||---------------------------------|---------------------------------||     111111111
E||---------------------------------|---------------------------------||

e||-------0---------------0---------|-------0---------------0---------||
B||---3-------3---3---3-------3---3-|---3-------3---3---3-------3---3-||
G||-----0-------0-------0-------0---|-----0-------0-------0-------0---||       22222
D||---------------------------------|---------------------------------||     222222222
A||-3-------------------------------|---------------------------------||    222     222
E||-----------------0---------------|-3---------------0---------------||            222
 ||                                                                   ||          2222
 ||                                                                   ||         2222
e||---------------------------------|-----------------------2---0-----||        2222
B||-------3-------0-------3-------0-|-------3-------0---------------0-||      2222
G||---2-------2-------2-------2-----|---2-------2-------2-------------||     222
D||-----0-------0-------0-------0---|-----0-------0-------0-----------||    22222222222
A||---------------------------------|---------------------------------||    22222222222
E||---------------------------------|---------------------------------||

e||-------0---------------0---------|-----------------------0---------||
B||---3-------3---3---3-------3---3-|---3---3-----------3-------3---3-||        33333
G||-----0-------0-------0-------0---|-----0-----0---0-----0-------0---||      333333333
D||---------------------------------|-------------2-------------------||     333     333
A||-3-------------------------------|---------------------------------||             333
E||-----------------0---------------|-3---------------0---------------||             333
 ||                                                                   ||           333
 ||                                                                   ||           333
e||---------------------------------|-----------------------2-------0-||             333
B||-------3-------0-------3-------0-|-------3-------0-----------0-----||             333
G||---2-------2-------2-------2-----|---2-------2-------2-------------||     333     333
D||-----0-------0-------0-------0---|-----0-------0-------0-----------||      333333333
A||---------------------------------|---------------------------------||        33333
E||---------------------------------|---------------------------------||

e||-------0-------------------------|-------0---------------0---------||
B||---3-------3---3---3---3------3--|---3-------3---3---3-------3---3-||
G||-----0-------0-------0----0------|-----0-------0-------0-------0---||          444
D||----------------------------2----|---------------------------------||         4444
A||-3-------------------------------|---------------------------------||        44444
E||-----------------0---------------|-3---------------0---------------||       44 444
 ||                                                                   ||      44  444
 ||                                                                   ||     44444444444
e||-------2-------0-------0-------0-|-------0---------2-----0---------||     44444444444
B||---0-------0-------0-------0-----|---0-------0---0---0-------0---0-||          444
G||-----2-------2-------2-------2---|-----2-------2-------2-------2---||          444
D||---------------------------------|---------------------------------||          444
A||---------------------------------|---------------------------------||       444444444
E||---------------------------------|---------------------------------||

e||-------0---------------0---------|-------0---------------0---------||
B||---3-------3---3---3-------3---3-|---3-------3---3---3-------3---3-||
G||-----0-------0-------0-------0---|-----0-------0-------0-------0---||        111
D||---------------------------------|---------------------------------||      11111
A||-3-------------------------------|---------------------------------||     111111
E||-----------------0---------------|-3---------------0---------------||        111
 ||                                                                   ||        111
 ||                                                                   ||        111
e||-------2-------0-------0-------0-|-------0---------2-----0---------||        111
B||---0-------0-------0-------0-----|---0-------0---0---0-------3-----||        111
G||-----2-------2-------2-------2---|-----2-------2-------2-----------||        111
D||---------------------------------|---------------------------------||     111111111
A||---------------------------------|---------------------------------||     111111111
E||---------------------------------|---------------------------------||

e||-------0---------------0---------|-------0---------------0---------||
B||---3-------3---3---3-------3---3-|---3-------3---3---3-------3---3-||
G||-----0-------0-------0-------0---|-----0-------0-------0-------0---||       22222
D||---------------------------------|---------------------------------||     222222222
A||-3-------------------------------|---------------------------------||    222     222
E||-----------------0---------------|-3---------------0---------------||            222
 ||                                                                   ||          2222
 ||                                                                   ||         2222
e||-2-----0-------0-------0---------|-2-----0---------2-----0---------||        2222
B||---0-------0-------0-------0---0-|---0-------0---0---0-------0---0-||      2222
G||-----2-------2-------2-------2---|-----2-------2-------2-------2---||     222
D||---------------------------------|---------------------------------||    22222222222
A||---------------------------------|---------------------------------||    22222222222
E||---------------------------------|---------------------------------||

e||-------0---------------0---------|-------0---------------0---------||
B||---3-------3---3---3-------3---3-|---3-------3---3---3-------3---3-||        33333
G||-----0-------0-------0-------0---|-----0-------0-------0-------0---||      333333333
D||---------------------------------|---------------------------------||     333     333
A||-3-------------------------------|---------------------------------||             333
E||-----------------0---------------|-3---------------0---------------||             333
 ||                                                                   ||           333
 ||                                                                   ||           333
e||-2-----0-------0-------0-------0-|-------0---------2-----0---------||             333
B||---0-------0-------0-------0-----|---0-------0---0---0-------0---0-||             333
G||-----2-------2-------2-------2---|-----2-------2-------2-------2---||     333     333
D||---------------------------------|---------------------------------||      333333333
A||---------------------------------|---------------------------------||        33333
E||---------------------------------|---------------------------------||

e||-------0---------------0---------|-------0---------------0---------||
B||---3-------3---3---3-------3---3-|---3-------3---3---3-------3---3-||
G||-----0-------0-------0-------0---|-----0-------0-------0-------0---||          444
D||---------------------------------|---------------------------------||         4444
A||-3-------------------------------|---------------------------------||        44444
E||-----------------0---------------|-3---------------0---------------||       44 444
 ||                                                                   ||      44  444
 ||                                                                   ||     44444444444
e||-2-----0---------0-----0---------|-2-----0-------------------------||     44444444444
B||---0-------3-------3-------3-----|---0-------3---------------------||          444
G||-----2---------------------------|-----2-----------------------0---||          444
D||---------------------------------|---------------------------------||          444
A||---------------------------------|---------------------------------||       444444444
E||---------------------------------|---------------------------------||
                                                                   /\
                                                                   ||
                                                                    --- notice the outro
guitar 2 starts here

-----------------------------------------------------------------------------------

Outro


e||-------0-------------------------|-----------------------0---------||
B||---3-------3---3---3---3-------3-|---3---3-------3---3-------3---3-||
G||-----0-------0-------0-----0-----|-----0-----0---------0-------0---||        111
D||-----------------------------2---|-------------2-------------------||      11111
A||-3-------------------------------|---------------------------------||     111111
E||-----------------0---------------|-3---------------0---------------||        111
 ||                                                                   ||        111
 ||                                                                   ||        111
e||---------------------------------|---------------------------------||        111
B||---------3---0-------------------|---------------------------------||        111
G||-----0---------------------------|-----------------------------0---||        111
D||-4-------------------------------|---------------------------------||     111111111
A||---------------------------------|---------------------------------||     111111111
E||---------------------------------|---------------------------------||

e||-------0-------------------------|-------0---------------0---------||
B||---3-------3---3---3---3-------3-|---3-------3---3---3-------3---3-||
G||-----0-------0-------0-----0-----|-----0-------0-------0-------0---||       22222
D||-----------------------------2---|---------------------------------||     222222222
A||-3-------------------------------|---------------------------------||    222     222
E||-----------------0---------------|-3---------------0---------------||            222
 ||                                                                   ||          2222
 ||                                                                   ||         2222
e||---------------------------------|---------------------------------||        2222
B||---------3---0-------------------|---------------------------------||      2222
G||-----0---------------------------|-----------------------------0---||     222
D||-4-------------------------------|---------------------------------||    22222222222
A||---------------------------------|---------------------------------||    22222222222
E||---------------------------------|---------------------------------||

e||---------------------------------|-------0---------------0---------||
B||---3---3-------3---3---3-------3-|---3-------3---3---3-------3---3-||        33333
G||-----0-----0---------0-----0-----|-----0-------0-------0-------0---||      333333333
D||-------------2---------------2---|---------------------------------||     333     333
A||-3-------------------------------|---------------------------------||             333
E||-----------------0---------------|-3---------------0---------------||             333
 ||                                                                   ||           333
 ||                                                                   ||           333
e||---------------------------------|---------------------------------||             333
B||---------3---0-------------------|---------------------------------||             333
G||-----0---------------------------|-----------------------------0---||     333     333
D||-4-------------------------------|---------------------------------||      333333333
A||---------------------------------|---------------------------------||        33333
E||---------------------------------|---------------------------------||

e||---------------------------------|---------------------------------||
B||---3---3-------3---3---3-------3-|---3---3--------(3)--------------||
G||-----0-----0---------0-----0-----|-----0-----0---(0)---------------||          444
D||-------------2---------------2---|--------------(2)----------------||         4444
A||-3-------------------------------|-------------(2)-----------------||        44444
E||-----------------0---------------|-3-----------0-------------------||       44 444
 ||                                                                   ||      44  444
 ||                                                                   ||     44444444444
e||---------------------------------|---------------------------------||     44444444444
B||---------3---0-------------------|---------------------------------||          444
G||-----0---------------------------|---------------------------------||          444
D||-4-------------------------------|---------------------------------||          444
A||---------------------------------|---------------------------------||       444444444
E||---------------------------------|---------------------------------||
Tap to rate this tab
# A B C D E F G H I J K L M N O P Q R S T U V W X Y Z