Guitaretab - guitar tabs
Song name
# A B C D E F G H I J K L M N O P Q R S T U V W X Y Z

Ryan Adams - Boys tab

-------------------------------------------------------------------------------
			     Boys - Ryan Adams    
-------------------------------------------------------------------------------
Tabbed by:TheTroy
Tuning: Standard

INTRO x2
e|-0-0-0-0-0-0-0-0~-0-0-0-0-0-0-0-0-0~-0-0-0-0~-0-0-0-0-0-0-0-0-0-0-0--------|
B|-7-7-7-7-7-7-7-4~-4-4-4-4-4-4-4-4h5~-4h5p4-2~-2h4p2-0-2-2-0-2-0-2-0--------|
G|---------------------------------------------------------------------------|
D|---------------------------------------------------------------------------|
A|---------------------------------------------------------------------------|
E|---------------------------------------------------------------------------|

VERSE X2
e|---------------------------------------------------------------------------|
B|---------------------------------------------------------------------------|
G|-4-4-4-4-4-4-4-4-----------------2-2-2-2-2-2-2-2---------------------------|
D|-4-4-4-4-4-4-4-4-2-2-2-2-2-2-2-2-2-2-2-2-2-2-2-2-2-2-2-2-2-2-2-2-----------|
A|-2-2-2-2-2-2-2-2-2-2-2-2-2-2-2-2-0-0-0-0-0-0-0-0-2-2-2-2-2-2-2-2-----------|
E|-----------------0-0-0-0-0-0-0-0-----------------0-0-0-0-0-0-0-0-----------|
   . . . . . . . . . . . . . . . . . . . . . . . . . . . . . . . .
[ Tab from: http://www.guitaretab.com/r/ryan-adams/173508.html ]
e|---------------------------------------------------------------------------|
B|---------------------------------7-7-7-7-7-7-7-7-7-7-7-7-7-7-7-------------|
G|-4-4-4-4-4-4-4-4-6-6-6-6-6-6-6-6-8-8-8-8-8-8-8-8-8-8-8-8-8-8-8-------------|
D|-4-4-4-4-4-4-4-4-6-6-6-6-6-6-6-6-9-9-9-9-9-9-9-9-9-9-9-9-9-9-9-------------|
A|-2-2-2-2-2-2-2-2-4-4-4-4-4-4-4-4-7-7-7-7-7-7-7-7-7-7-7-7-7-7-7-------------|
E|---------------------------------------------------------------------------|
   . . . . . . . . . . . . . . . . . .     . .   . . .     . .


CHORUS
e|-4-4-4-4-4-4-4-4-0-0-0-0-0-0-0-0-2-2-2-0--0-0-2-2-2-0--0-0-----------------|
B|-5-5-5-5-5-5-5-5-2-2-2-2-2-2-2-2-4-4-4-0--0-0-4-4-4-0--0-0-----------------|
G|-6-6-6-6-6-6-6-6-2-2-2-2-2-2-2-2-4-4-4-1--1-1-4-4-4-1--1-1-----------------|
D|-6-6-6-6-6-6-6-6-2-2-2-2-2-2-2-2-4-4-4-2--2-2-4-4-4-2--2-2-----------------|
A|-4-4-4-4-4-4-4-4-0-0-0-0-0-0-0-0-2-2-2-2--2-2-2-2-2-2--2-2-----------------|
E|---------------------------------------0--0-0-------0--0-0-----------------|


PLAY INTRO X1

PLAY VERSE X2

PLAY CHORUS X4

BRIDGE X?
e|---------------------------------------------------------------------------|
B|-7-7-7-7-7-7-7-7-7-7-7-7-7-7-7-7-7-7---------------------------------------|
G|-8-8-8-8-8-8-8-8-8-8-8-8-8-8-8-8-8-8-5-5-5-5/7-7-7-------------------------|
D|-9-9-9-9-9-9-9-9-9-9-9-9-9-9-9-9-9-9-5-5-5-5/7-7-7-------------------------|
A|-7-7-7-7-7-7-7-7-7-7-7-7-7-7-7-7-7-7-3-3-3-3/5-5-5-------------------------|
E|---------------------------------------------------------------------------|

This is the other "sound" in the bridge. just play a lot (they are twenty two's)
e|-22------------------------------------------------------------------------|
B|---22----------------------------------------------------------------------|
G|---------------------------------------------------------------------------|
D|---------------------------------------------------------------------------|
A|---------------------------------------------------------------------------|
E|---------------------------------------------------------------------------|


PLAY VERSE AGAIN

PLAY CHORUS X3 

THEN INTRO the song until it ends


ROCK ON!!!!

+++++++++++++++++++++++++++++++++++++++++++++++++++++++++++++++++++++++++
. = Palm Mute
h = Hammer on
p = pull-off
Related for Boys tab
Advertisement will be closed in 10 seconds