Song name
# A B C D E F G H I J K L M N O P Q R S T U V W X Y Z

Ryan Adams - Fix It tab

i've done my best.. it should be something like this...

Solo:

  Am                    Dm               Am
|----------------------|-------------------------------|
|----------------------|--10--8------------------------|
|----------------------|--------9--7--7p5-7p5----------|
|------5--7/9---9--7---|----------------------7-7-5h7--|
|--5/7--------------7--|-------------------------------|
|----------------------|-------------------------------|
Dm                Am                    Dm
|-----------------------------------------|-------------------------------|
|-------------8h10------------------------|-------------------------------|
|------5--7/9------9--7-------------------|---------------5--5h7-7-7/9----|
|-5h7-------------------9--7--7--5--------|-------5h7--7------------------|
|-----------------------------------7--5--|--5h7--------------------------|
|-----------------------------------------|-------------------------------|
Tap to rate this tab
# A B C D E F G H I J K L M N O P Q R S T U V W X Y Z