Song name
# A B C D E F G H I J K L M N O P Q R S T U V W X Y Z

Ryan Adams - Mega-superior Gold tab

-------------------------------------------------------------------------------
			     meag superior gold - ryan adams and the pinkhearts
-------------------------------------------------------------------------------
Tabbed by: TheTroy
Tuning: Standard

INTRO
e|---------------------------------------------------------------------------|
B|---------------------------------------------------------------------------|
G|-4-4--66--2-2-2--4-4--66--2-2-2--------------------------------------------|
D|-4-4--66--2-2-2--4-4--66--2-2-2--2-2---------------------------------------|
A|-2-2--44--0-0-0--2-2--44--0-0-0--2-2---------------------------------------|
E|---------------------------------0-0---------------------------------------|

verse (play the intro)

pre chorus
e|---------------------------------------------------------------------------|
B|---------------------------------------------------------------------------|
G|-4/6-6--4-4-2-2--4/6-6-2-2-------------------------------------------------|
D|-x/x-x--4-4-2-2--x/x-x-2-2-2-2---------------------------------------------|
A|-2/4-4--2-2-0-0--2/4-4-0-0-2-2---------------------------------------------|
E|---------------------------0-0---------------------------------------------|

CHORUS
e|---------------------------------------------------------------------------|
B|---------------------------------------------------------------------------|
G|------44-4-4--22-2-2--2-2--------------------------------------------------|
D|-2-2--44-4-4--22-2-2--2-2--------------------------------------------------|
A|-2-2--22-2-2--00-0-0--0-0--------------------------------------------------|
E|-0-0-----------------------------------------------------------------------|

chorus pt 2
e|---------------------------------------------------------------------------|
B|---------------------------------------------------------------------------|
G|------6-6-6-6-6-6-6-6-6-6-6-6-6-6-6-6--------------------------------------|
D|-2-2--6-6-6-6-6-6-6-6-6-6-6-6-6-6-6-6-5-5-5-5-5-5-5-5-7-7-7-7-7-7-7-7------|
A|-2-2--4-4-4-4-4-4-4-4-4-4-4-4-4-4-4-4-5-5-5-5-5-5-5-5-7-7-7-7-7-7-7-7------|
E|-0-0----------------------------------3-3-3-3-3-3-3-3-5-5-5-5-5-5-5-5------|

chorus pt 3
e|---------------------------------------------------------------------------|
B|---------------------------------------------------------------------------|
G|-----------------4-4-4-4-4-4-4-4-------------------------------------------|
D|-2-2-2-2-2-2-2-2-4-4-4-4-4-4-4-4-5-5-5-5-5-5-5-5-7-7-7-7-7-7-7-7-----------|
A|-2-2-2-2-2-2-2-2-2-2-2-2-2-2-2-2-5-5-5-5-5-5-5-5-7-7-7-7-7-7-7-7-----------|
-|-0-0-0-0-0-0-0-0-----------------3-3-3-3-3-3-3-3-5-5-5-5-5-5-5-5-----------|

play intro

play verse

play pre chorus

play all chorus parts

end on E

| /  slide up
| \  slide down
| h  hammer-on
| p  pull-off
| ~  vibrato
| +  harmonic
| x  Mute note
===============================================================================
Tap to rate this tab
# A B C D E F G H I J K L M N O P Q R S T U V W X Y Z