Guitaretab - guitar tabs
Song name
# A B C D E F G H I J K L M N O P Q R S T U V W X Y Z

Ryan Adams - Do Miss America tab

-------------------------------------------------------------------------------
			     Do Miss America- Ryan Adams
-------------------------------------------------------------------------------
Tabbed by: djbeatster
Email: djbeatster@hotmail.com

Tuning: Standard (I think Im pretty close to what is going on  I thought I should 
something to this site)


e|-----------------------------------------------------------------------------|
B|------------ ----------------------------------------------------------------|
G|-- -- - -- 4---4---4---2--2--2-----------------------------------------------|
D|---2--2--2--4---4---4---2--2--2----------------------------------------------|
A|---2--2--2--2---2---2---0--0--0----------------------------------------------|
E|---0--0--0-------------------------------------------------------------------|

e|-----------------------------------------------------------------------------|
B|-----------2----------------------------------------------------------------|
G|- -- -- ---2-----------------------------------------------------------------|
D|-2--2--2---2-----------------------------------------------------------------|
A|-2--2--2---0-----------------------------------------------------------------|
E|-0--0--0---------------------------------------------------------------------|
[ Tab from: http://www.guitaretab.com/r/ryan-adams/189266.html ]
e|---------------------------------------------------------------------------------|
B|---------------------------------------------------------------------------------|
G|---------------------6------------2----------------------------------------------|
D|----------4-------6------------2-------------------------------------------------|
A|-------4-------4------------0----------------------------------------------------|
E|-0--2-------0------------0-------------------------------------------------------|

e|----------------------------------------------------------------------------------|
B|--9----4----6----4---2------------------------------------------------------------|
G|--9----4----6----4---2------------------------------------------------------------|
D|--9----4----6----4---2------------------------------------------------------------|
A|--7----2----4----2---0------------------------------------------------------------|
E|----------------------------------------------------------------------------------|

e|---------------------------------------------------------------------------------|
B|---------------------------------------------------------------------------------|
G|---------------------6------------2----------------------------------------------|
D|----------4-------6------------2-------------------------------------------------|
A|-------4-------4------------0----------------------------------------------------|
E|-0--2-------0------------0-------------------------------------------------------|




| /  slide up
| \  slide down
| h  hammer-on
| p  pull-off
| ~  vibrato
| +  harmonic
| x  Mute note
===============================================================================
Related for Do Miss America tab