Song name
# A B C D E F G H I J K L M N O P Q R S T U V W X Y Z

Ryan Adams - Harder Now That Its Over tab

This is my second attempt tabbing the solo and i am now very sure this is the 
correct tabs for it.. The very last part might not sound 100% correct though.

-------------------------------------------------------------------------------
			     Harder Now That It's Over - Ryan Adams
-------------------------------------------------------------------------------
Tabbed by: motimon3


e|--------------------------------------------------------------------------|
B|-------------------------------------8-8~8b9-8---------------------------|
G|-0-2-4--2-4-2--0-2-0--4-2-4--7-9---------------------7-----------2-0-2---|
D|----------------------------------------------7\5-5/7---7\5-9br7----------|
A|--------------------------------------------------------------------------|
E|--------------------------------------------------------------------------|

e|--------------------------------------------------------------------------|
B|-------------------------8p5-8-3h5-3-------------------------------------|
G|---------0-2-2h4-2-0-2b----------------4h7-4------------------------------|
D|-5---5----------------------------------------7-9-7/9\7-5/----5-5---5-----|
A|---5---5---------------------------------------------------5------5-------|
E|--------------------------------------------------------------------------|


Tap to rate this tab
# A B C D E F G H I J K L M N O P Q R S T U V W X Y Z