Song name
# A B C D E F G H I J K L M N O P Q R S T U V W X Y Z

Ryan Adams - In My Time Of Need tab

-------------------------------------------------------------------------------
			     In my Time of Need - Ryan Adams
-------------------------------------------------------------------------------
Tabbed by: Anthony
Email:

Tuning: Capo 3rd Fret
Intro-- Listen to the song for the right picking
Repeat twice
e|---------------------------------------------------------------------------|
B|---------------------------------------------------------------------------|
G|-------------------------------0~------------------------------------------|
D|-------------------------------0h2---0-------------------------------0h2---|
A|---2-------oh2---2---2h3---3-------------2-------0h2---2---2h3---3---------|
E|---3---3---------------------------------3---3-----------------------------|

e|---------------------------------------------------------------------------|
B|---------------------------------------------------------------------------|
G|---0-----------------------------------------------------------------------|
D|---------------------------------------------------------------------------|
A|-------2-------0h2---2---2h3---3---3p2---0---2-----------------------------|
E|-------3---3---------------------------------3-----------------------------|
Verse 1 repeat twice
e|---------------------------------------------------------------------------|
B|---------------------------------------------------------------------------|
G|-----------0~----------------------------------------0---------------------|
D|---2-------0h2---0-----------0~--------2-------0h2-------------------------|
A|---3---3-------------2-------0h2---0---3---3-------------2-------0h2---0---|
E|---------------------3---3-------------------------------3---3-------------|

e|---------------------------------------2---2---2h3---0---0h2---2---2p0-----|
B|---------------------------------------3---3---3-----3---3-----3---3-------|
G|-----------0~--------------------------2---2---2-----2---2-----2---2-------|
D|---2-------0h2---0-----------0~--------------------------------------------|
A|---3---3-------------2-------0h2---0---------------------------------------|
E|---------------------3---3-------------------------------------------------|
Chorus
e|-----------------------------------------2---2---2h3---0---0h2---2---2p0---|
B|---1---1-----------1---1-----1-----------3---3---3-----3---3-----3---3-----|
G|---2---2---------------------------------2---2---2-----2---2-----2---2-----|
D|---2---2---0---2---2---0h2---0---------------------------------------------|
A|-----------2---3---3---3-----3---2---2-------------------------------------|
E|---------------------------------3---3-------------------------------------|

e|---------------------------------------------------------------------------|
B|---1---1-----------1---1-----1---------------------------------------------|
G|---2---2-------------------------------------------------------------------|
D|---2---2---0---2---2---0h2---0---------------------------------------------|
A|-----------2---3---3---3-----3---2---2~------------------------------------|
E|---------------------------------3---3~------------------------------------|
repeat whole tab
Tell me what you think. Enjoy!

| /  slide up
| \  slide down
| h  hammer-on
| p  pull-off
| ~  vibrato
| +  harmonic
| x  Mute note
===============================================================================
Tap to rate this tab
# A B C D E F G H I J K L M N O P Q R S T U V W X Y Z