Ryan Adams - Lovely And Blue chords

Highlighted       Show chord diagrams
Ryan Adams & The Cardinals
Lovely and Blue
III/IV

Tabbed by:  Evan Prokup

Intro:

    F  Am C
e-------------|
B---1--5--8---|
G---2--5--9---|
D---3--7--10--|
A---3--7--10--|
E-------------|


Verse:

    F  Am C
e-------------|
B---1--1--1---|
G---2--2--0---|
D---3--2--2---|
A---3--0--3---|
E---1---------|


Pre Chorus (x3):

    G  Am
e---------|
B---3--5--|
G---4--5--|
D---5--7--|
A---5--7--|
E---3--5--|


Chorus:

    F  C  G          F  G Am  C
e------------      --------------|
B---1--5--3--      --1--------5--|
G---2--5--4-- (x3) --2--4--5--5--|
D---3--5--5--      --3--5--7--5--|
A---3--3--5--      --3--5--7--3--|
E---1-----3--      --1--3--5-----|
Tap to rate this tab
 
# A B C D E F G H I J K L M N O P Q R S T U V W X Y Z