Song name
# A B C D E F G H I J K L M N O P Q R S T U V W X Y Z

Ryan Adams - When The Stars Go Blue tab

Highlighted       Show chord diagrams
Capo 3

Verse:
(Am) Dancin where the (C) stars go (G) blue (D)
(Am) Dancin where the (C) evening (G) fell (D)
(Am) Dancin in your (C) wooden (G) shoes (D)
In A wedding (Am) gown (C) (G) (D)

(Am) Dancin out on (C) 7th (G) street (D)
(Am) Dancin through the (C) under (G) ground (D)
(Am) Dancin little (C) Mario(G)nette (D)
Are you happy (Am) now (C) (G) (D)

Pre-Chorus:
(C) Where do you (G) go when youre (D) lonely?
(C) Where do you (G) go  when youre (D) blue?
(C) Where do you (G) go when youre (D) lonely ? I'll (Am) follow you

Chorus:
When the stars go (G) blue (D) (Am)
When the stars go (G) blue (D) (Am)
When the stars go (G) blue (D) (Am)
When the stars go (C) blue

Am C G D x2

OR
E ||------------------------------------------------|
B ||-----------3------------------------------------|
G ||--2--5--6-----6--5--0---------------------------|
D ||-----------------------4------------------------|      x2
A ||------------------------------------------------|
E ||------------------------------------------------|

 Verse 2
(Am) Laughing with (C) your pretty (G) mouth (D)
(Am) Laughing with (C) your broken (G) eyes (D)
(Am) Laughing with (C) your lovers (G) tongue  (D)
In A Lulla(Am)bye (C) (G) (D)

Pre-Chorus:
(C) Where do you (G) go when youre (D) lonely?
(C) Where do you (G) go when youre (D) blue?
(C) Where do you (G) go when youre (D) lonely? I'll (Am) follow you

Chorus:
When the stars go (G) blue (D) (Am)
When the stars go (G) blue (D) (Am)
When the stars go (G) blue (D) (Am)
When the stars go (C) blue

Final Chorus:
Stars go (G) blue (D) (Am)
Stars go (G) blue (D) (Am)
Stars go (G) blue (D) (Am)
Stars go (C) blue

Outro:
Am C G D  x3
Am C G

OR

E ||-------------------------------------------------------|
B ||-----------3-------------------------------------------|
G ||--2--5--6-----6--5--0----------------------------------|
D ||-----------------------4-------------------------------|      x4
A ||-------------------------------------------------------|
 E ||------------------------------------------------------|

End the song with a G chord
Tap to rate this tab
 
# A B C D E F G H I J K L M N O P Q R S T U V W X Y Z