Song name
# A B C D E F G H I J K L M N O P Q R S T U V W X Y Z

Ryan Adams - Lucky Now tab

Ryan Adams - Lucky Now
Tabbed by fairchiiiild
http://www.youtube.com/watch?v=42O4jz1qL8s&feature=related

Capo 3

Verse
E--------------------------------------|
B-1----1--1-----1----1---1--1--1-------|
G---------0h2p0-0----------------------|
D-0h2--0--3-----2----0h2-0--0--2-------|
A-3----3--3-----3----3---3--2--3-------|
E--------------------------------------|

Every now and then I'll mix in these variations...
--------------------------------------|
--1----1--1-----1-1------1--1--1------|
----------0h2p0-0---------------------|
--0h2--0--3-----3-0h2----------2------|
--3----3--3-----3-3------2--3--3------|
-------------------------3--3---------|



Chorus
---------------------------------------|
------1---1-1--1--1-1-1--1----1-1-1----|
----------2-0------------2p0-----------|
------3---2-2--3--2---3--2-h3----------|
------3--------3--3-2-3-------2-3-2----|
------------------3-3---------3-3-3----|



Ayyyyyy...
---------------------------|
-1--1--1---1-1----1--------|
-------2p0-2------2p0------|
-3-----2---3------2--------|
-3--2--------2h3-----------|
----3--------3-------------|

------------------------|
-1--1--1---1-1-1--------|
-------2p0--------------|   (x2)
-3-----2----------------|
-3--2------2h3p2p0------|
----3------3-3-3--------|
Tap to rate this tab
# A B C D E F G H I J K L M N O P Q R S T U V W X Y Z