Song name
# A B C D E F G H I J K L M N O P Q R S T U V W X Y Z

Ryan Adams - Luminol tab

                                     LUMINOL
                            As recorded by Ryan Adams
                        (From the 2003 Album ROCK N ROLL)

Arranged by Corey Hunter
Transcribed by Corey Hunter

      D                  A               G              B5
10 12 12 11 x x     5 7 7 6 x x     3 5 5 4 x x    7 9 9 x x x

          Gm
      3 1 0 x x x

   Intro
    Moderate Rock Q=134
    G#5               D#/E  C#/E        B5                          F#/E
   4/4
    Gtr I
    PM------------------------------------------------------------------|
    E E E E E E E E   E E E E E E E E   E E E E E E E E   E E E E E E E E
||------------------|-----------------|-----------------|------------------||
||o-----------------|-----------------|-----------------|-----------------o||
||------------------|-----------------|-----------------|------------------||
||------------------|-----------------|-----------------|------------------||
||o-6-6-6-6-6-6-6-6-|-6-6-6-4-4-4-4-4-|-9-9-9-9-9-9-9-9-|-9-9-9-9-9-9-9-9-o||
||--4-4-4-4-4-4-4-4-|-0-0-0-0-0-0-0-0-|-7-7-7-7-7-7-7-7-|-7-7-7-7-7-0-0-0--||


   Verse
    PM------------------------------------------------------------------|
    E E E E E E E E   E E E E E E E E   E E E E E E E E   E E E E E E E E
||------------------|-----------------|-----------------|-------------------||
||o-----------------|-----------------|-----------------|------------------o||
||------------------|-----------------|-----------------|-------------------||
||------------------|-----------------|-----------------|-------------------||
||o-6-6-6-6-6-6-6-6-|-6-6-6-4-4-4-4-4-|-9-9-9-9-9-9-9-9-|-9-9-9-9-9-9-9-9--o||
||--4-4-4-4-4-4-4-4-|-0-0-0-0-0-0-0-0-|-7-7-7-7-7-7-7-7-|-7-7-7-7-7-0-0-0---||


   Pre-Chorus
    C#5                       D5
     E  E  E  E  E  E  E  E    E  E  E  E  E  E  E  E
||--------------------------|-------------------------|
||o-------------------------|-------------------------|
||--------------------------|-------------------------|
||--------------------------|-------------------------|
||o-11-11-11-11-11-11-11-11-|-14-14-14-14-14-14-14-14-|
||---9--9--9--9--9--9--9--9-|-12-12-12-12-12-12-12-12-|


  B5
  E E E E E E E E   E E E E E E E E
|-----------------|------------------|
|-----------------|------------------|
|-----------------|------------------|
|-----------------|------------------|
|-9-9-9-9-9-9-9-9-|-9-9-9-9-9-9-9-9--|
|-7-7-7-7-7-7-7-7-|-7-7-7-7-7-7-7-7--|


   E  E  E  E  E  E  E  E    E  E  E  E  E  E  E  E
|-------------------------|-------------------------||
|-------------------------|-------------------------||
|-------------------------|-------------------------||
|-------------------------|-------------------------||
|-11-11-11-11-11-11-11-11-|-14-14-14-14-14-14-14-14-||
|--9--9--9--9--9--9--9--9-|-12-12-12-12-12-12-12-12-||


 Chorus
  D                         A         G
   E  E  E  E  E  E  E  E   E E E E E E +Q
|-------------------------|------------------|
|-------------------------|------------------|
|-11-11-11-11-11-11-11-11-|-6-6-6-6-6-4-(4)--|
|-12-12-12-12-12-12-12-12-|-7-7-7-7-7-5-(5)--|
|-12-12-12-12-12-12-12-12-|-7-7-7-7-7-5-(5)--|
|-10-10-10-10-10-10-10-10-|-5-5-5-5-5-3-(3)--|


  B5
  E E E E E E E E   E E E E E E E E
|-----------------|------------------|
|-----------------|------------------|
|-----------------|------------------|
|-9-9-9-9-9-9-9-9-|-9-9-9-9-9-9-9-9--|
|-9-9-9-9-9-9-9-9-|-9-9-9-9-9-9-9-9--|
|-7-7-7-7-7-7-7-7-|-7-7-7-7-7-7-7-7--|


  D                         A         G
   E  E  E  E  E  E  E  E   E E E E E E +Q
|-------------------------|------------------|
|-------------------------|------------------|
|-11-11-11-11-11-11-11-11-|-6-6-6-6-6-4-(4)--|
|-12-12-12-12-12-12-12-12-|-7-7-7-7-7-5-(5)--|
|-12-12-12-12-12-12-12-12-|-7-7-7-7-7-5-(5)--|
|-10-10-10-10-10-10-10-10-|-5-5-5-5-5-3-(3)--|


  B5
  E E E E E E E E   E E E E E E Q
|-----------------|-----------------||
|-----------------|-----------------||
|-----------------|-----------------||
|-9-9-9-9-9-9-9-9-|-9-9-9-9-9-9-9---||
|-9-9-9-9-9-9-9-9-|-9-9-9-9-9-9-9---||
|-7-7-7-7-7-7-7-7-|-7-7-7-7-7-7-7---||


   Bridge
    Gm
    E E E E E E Q    E E E E E E Q    E E E E E E E E   E E E E E E Q
||-----------------|----------------|-----------------|----------------|
||o----------------|----------------|-----------------|----------------|
||-----------------|----------------|-----------------|----------------|
||------0-------0--|-----0-------0--|-----0-------0---|-----0-------0--|
||o---1---1---1----|---1---1---1----|---1---1---1-----|---1---1---1----|
||--3-------3------|-3-------3------|-3-------3-----3-|-3-------3------|


  1.                         2.
  Gm7/Bb                                              C5
   W          +W              W          +W            W          +W
|-----------|-------------||-----------|------------|-----------|--------|
|-----------|------------o||-----------|------------|-----------|--------|
|-^0--------|-(0)---------||-^0--------|-(0)--------|-^0--------|-(0)----|
|-^3--------|-(3)---------||-^3--------|-(3)--------|-^5--------|-(5)----|
|-^1--------|-(1)--------o||-^1--------|-(1)--------|-^3--------|-(3)----|
|-----------|-------------||-----------|------------|-----------|--------|


    G5
    PM--------------------------------------------------------------------|
    E E E E E E E E   E E E E E E E E  3x E E E E E E E E   E E E E E E E E
||------------------|------------------||-----------------|-----------------||
||o-----------------|-----------------o||-----------------|-----------------||
||------------------|------------------||-----------------|-----------------||
||------------------|------------------||-----------------|-----------------||
||o-5-5-5-5-5-5-5-5-|-5-5-5-5-5-5-5-5-o||-5-5-5-5-5-5-5-5-|-5-5-5-----------||
||--3-3-3-3-3-3-3-3-|-3-3-3-3-3-3-3-3--||-3-3-3-3-3-3-3-3-|-3-3-3-0-0-0-0-0-||


   End Chorus
    D                         A         G
     E  E  E  E  E  E  E  E   E E E E E E +Q
||--------------------------|------------------|
||o-------------------------|------------------|
||--11-11-11-11-11-11-11-11-|-6-6-6-6-6-4-(4)--|
||--12-12-12-12-12-12-12-12-|-7-7-7-7-7-5-(5)--|
||o-12-12-12-12-12-12-12-12-|-7-7-7-7-7-5-(5)--|
||--10-10-10-10-10-10-10-10-|-5-5-5-5-5-3-(3)--|


  B5
  E E E E E E E E   E E E E E E E E
|-----------------|-----------------|
|-----------------|-----------------|
|-----------------|-----------------|
|-9-9-9-9-9-9-9-9-|-9-9-9-9-9-9-9-9-|
|-9-9-9-9-9-9-9-9-|-9-9-9-9-9-9-9-9-|
|-7-7-7-7-7-7-7-7-|-7-7-7-7-7-7-7-7-|


  1.
  D                         A         G
   E  E  E  E  E  E  E  E   E E E E E E +Q
|-------------------------|------------------|
|-------------------------|------------------|
|-11-11-11-11-11-11-11-11-|-6-6-6-6-6-4-(4)--|
|-12-12-12-12-12-12-12-12-|-7-7-7-7-7-5-(5)--|
|-12-12-12-12-12-12-12-12-|-7-7-7-7-7-5-(5)--|
|-10-10-10-10-10-10-10-10-|-5-5-5-5-5-3-(3)--|


  B5
  E E E E E E E E   E E E E E E Q
|-----------------|------------------||
|-----------------|-----------------o||
|-----------------|------------------||
|-9-9-9-9-9-9-9-9-|-9-9-9-9-9-9-9----||
|-9-9-9-9-9-9-9-9-|-9-9-9-9-9-9-9---o||
|-7-7-7-7-7-7-7-7-|-7-7-7-7-7-7-7----||


  2.
  D                         A         G
   E  E  E  E  E  E  E  E   E E E E E E +Q
|-------------------------|------------------|
|-------------------------|------------------|
|-11-11-11-11-11-11-11-11-|-6-6-6-6-6-4-(4)--|
|-12-12-12-12-12-12-12-12-|-7-7-7-7-7-5-(5)--|
|-12-12-12-12-12-12-12-12-|-7-7-7-7-7-5-(5)--|
|-10-10-10-10-10-10-10-10-|-5-5-5-5-5-3-(3)--|


  D                         A         G
   E  E  E  E  E  E  E  E   E E E E E E +Q
|-------------------------|-------------------|
|-------------------------|-------------------|
|-11-11-11-11-11-11-11-11-|-6-6-6-6-6-4-(4)---|
|-12-12-12-12-12-12-12-12-|-7-7-7-7-7-5-(5)---|
|-12-12-12-12-12-12-12-12-|-7-7-7-7-7-5-(5)---|
|-10-10-10-10-10-10-10-10-|-5-5-5-5-5-3-(3)---|


  D                         A         G
   E  E  E  E  E  E  E  E   E E E E E E +Q
|-------------------------|------------------|
|-------------------------|------------------|
|-11-11-11-11-11-11-11-11-|-6-6-6-6-6-4-(4)--|
|-12-12-12-12-12-12-12-12-|-7-7-7-7-7-5-(5)--|
|-12-12-12-12-12-12-12-12-|-7-7-7-7-7-5-(5)--|
|-10-10-10-10-10-10-10-10-|-5-5-5-5-5-3-(3)--|


  D                         A         G
   E  E  E  E  E  E  E  E   E E E E E E +Q
|-------------------------|-------------------|
|-------------------------|-------------------|
|-11-11-11-11-11-11-11-11-|-6-6-6-6-6-4-(4)---|
|-12-12-12-12-12-12-12-12-|-7-7-7-7-7-5-(5)---|
|-12-12-12-12-12-12-12-12-|-7-7-7-7-7-5-(5)---|
|-10-10-10-10-10-10-10-10-|-5-5-5-5-5-3-(3)---|


  B5
  W          +W           +W           +W
|----------|------------|------------|--------*|
|----------|------------|------------|--------*|
|----------|------------|------------|--------*|
|-9--------|-(9)--------|-(9)--------|-(9)----*|
|-9--------|-(9)--------|-(9)--------|-(9)----*|
|-7--------|-(7)--------|-(7)--------|-(7)----*|



***************************************************************************************
* Generated using Power Tab Editor by Brad Larsen - http://powertab.guitarnetwork.org *
***************************************************************************************
Tap to rate this tab
# A B C D E F G H I J K L M N O P Q R S T U V W X Y Z