Guitaretab - guitar tabs
Song name
# A B C D E F G H I J K L M N O P Q R S T U V W X Y Z

Ryan Adams - So Alive tab

Artist: Ryan Adams
Song:  So Alive
Album:  Rock N Roll
Tabbed by: Richard Polk

Intro/Chorus:  (NOTE:  Those are 10s and 12s on the b string, not 1s, 2s and 0s)

e-0-0-0-0-0-0-0-0-0-0-0-0-0-0-0-0-0-0-0-0-0-0-0-0-0-0-0-0-0-0-0-0-|
B-7-7-7-7-7-7-5-5/101010109-9-9-9-7-7-7-7-7-7-5-5-101010109-9-9-9-|
G-----------------------------------------------------------------|
D-----------------------------------------------------------------|
A-----------------------------------------------------------------|
E-----------------------------------------------------------------|
[ Tab from: http://www.guitaretab.com/r/ryan-adams/47706.html ]
e-0-0-0-0-0-0-0-0-0-0-0-0-0-0-0-0-0-0-0-0-0-0-0-----0-0-0-0-0-0-0-|
B-1212121212125-5-101010109-9-9-9-2-2-2-2-2-2-2-0-0-0-0-0-0-0-0-0-|
G-----------------------------------------------2-2---------------|
D-----------------------------------------------------------------|
A-----------------------------------------------------------------|
E-----------------------------------------------------------------|

Verse:

e----------------------------12---------------------------------12------|
B-----12----12--12--12---------12-------12----12--12--12----------12----|
G---13----13------1414-13h14---(14)--13----13------14--14-13h14---(14)-|
D-14----14----14--------------------14----14----14----------------------|
A-----------------------------------------------------------------------|
E-----------------------------------------------------------------------|

Bridge riff (definitely not correct, but close):

e----------------------------------|
B---------------5-4----------------|
G-----------4-6-----6-4-6-----4----|
D-----2-4/6---------------4h6---6--|
A-2-4------------------------------|
E----------------------------------|

Song ends on an open E chord (I think) before going into the piano outro, which I cant transcribe.
Related for So Alive tab