Song name
# A B C D E F G H I J K L M N O P Q R S T U V W X Y Z

Ryan Adams - I See Monsters tab

-------------------------------------------------------------------------------
			     I See Monsters - Ryan Adams
-------------------------------------------------------------------------------
Tabbed by: Mike Cooper


Tuning: Capo 1st

It's all finger picked, so you can have the fun of figuring that out on your own, but here it is.

Verse/Main Riff
    A     A                 G*   F#*  F/A  G/A
e|--0-----------------------3----2-----x----x--------------------------------|
B|--2-------------5---------x----x-----x----x--------------------------------|
G|--2-----2--4/6----6/4/2---2----2-----2----2--------------------------------|
D|--2-2h4-------------------x----x-----2----2--------------------------------|
A|--0-----------------------x----x-----x----x--------------------------------|
E|--x-----------------------3----2-----1----3--------------------------------|

"oohhh, people are shouting..."
      A  G#/A  G/A  F#/A  F/Am7  G/Am7
e|---------------------------------------------------------------------------|
B|----2---2-----2----2-----1------1------------------------------------------|
G|----2---2-----2----2-----0------0------------------------------------------|
D|----2---2-----2----2-----2------2------------------------------------------|
A|----0---x-----x----x-----x------x------------------------------------------|
E|--------4-----3----2-----1------3------------------------------------------|

"ooohhhh, when she comes..."
   Dm    G           C     F *alternate bass note           E
                               between F and C
e|--1----3-----------0-----1--------------------------------0----------------|
B|--3----0-----------1-----1--------------------------------0----------------|
G|--2----0-----------0-----2--------------------------------1----------------|
D|--0----0-----------2-----3--------------------------------2----------------|
A|-------2--0--2--3--3--2--3--*(3)--------------------------2----------------|
E|-------3-----------------1--------------------------------0----------------|

"Still it makes me want to be a little stronger..."
                                   "Still I See Monsters"
  Am7   G/Am7  F#/Am7   F/Am7      E
e|-0-----0--------0-------0--------0-----------------------------------------|
B|-1-----1--------1-------1--------0-----------------------------------------|
G|-0-----0--------0-------0--------1-----------------------------------------|
D|-2-----2--------2-------2--------2-----------------------------------------|
A|-0-----0--------0-------0--------2-----------------------------------------|
E|-x-----3--------2-------1--------0-----------------------------------------|

Outro, same walk down as before, but with a little flair  
    Am7     G/Am7  F#/Am7   F/Am7
e|---0-------0-------0-------0-----------------------------------------------|
B|---1-p-0-h-1-------1-p-0-h-1-----------------------------------------------|
G|---0-------0-------0-------0-----------------------------------------------|
D|---2-------2-------2-------2-----------------------------------------------|
A|---0-------0-------0-------0-----------------------------------------------|
E|---x-------3-------2-------1-----------------------------------------------|

End it on an E


Thats about it, any questions, comments, concerns, you can get me at mlc5015@gmail.com 


| /  slide up
| \  slide down
| h  hammer-on
| p  pull-off
| ~  vibrato
| +  harmonic
| x  Mute note
===============================================================================
Tap to rate this tab
# A B C D E F G H I J K L M N O P Q R S T U V W X Y Z