Song name
# A B C D E F G H I J K L M N O P Q R S T U V W X Y Z

Ryan Adams - Enemy Fire tab

             "Enemy Fire"
              Ryan Adams

Standard Tuning

[Intro]
-|-------------------------------------|-
-|-------------------------------------|-
-|-------------0----------------0------|-
-|-----0-----0-----0----------0--------|-
-|---7-----5---------5s3----3----------|-
-|-8-----7-------6--------5------------|-


[Verse]
    G          F6sus2
-|--3-3-3----------|--3----------------|-
-|--0-0-0------1---|--1-occasionally---|-
-|--0-0-0------0---|--0-this chord is--|-
-|--0-0-0------0---|--3-taken instead.-|-
-|--x-x-x------3---|--0----------------|-
-|--3-3-3------1---|--1----------------|-
    Enemy    Fire...


[pre-chorus]
-|--------------------|-
-|--0-0-0-0-0-0-0...--|-
-|--0-0-0-0-0-0-0...--|-
-|--1-1-1-1-1-1-1...--|-


[Chorus]

Guitar 1:
-|---3--------3----3-----3------3------|-
-|---3--------3----3-----3------3------|-
-|---0--------0----0-----0------0------|-
-|---2--------0----0-----2---s2----0---|-
-|---3--------2----1-----0-------------|-
-|-------------------------------------|-
Guitar 2:
-|---3--------3----3-----3-------------|-
-|---1--------1----1-----1-------------|-
-|---0--------0----0-----0-------------|-
-|---2--------0----0-----2-------------|-
-|---3--------2----1-----0-------------|-
-|-------------------------------------|-
It's too late baby, baby it's too late.



Tap to rate this tab
# A B C D E F G H I J K L M N O P Q R S T U V W X Y Z