Song name
# A B C D E F G H I J K L M N O P Q R S T U V W X Y Z

Ryan Adams - Dont Ask For The Water tab

-------------------------------------------------------------------------------
			     SONG NAME - Band Name
-------------------------------------------------------------------------------
Tabbed by:
Email:

Tuning:

     A
e|---------------------------------------------------------------------------|
B|---------2------------------3-------------2--------------------------------|
G|------------2------------2-----2-------------2-----------------------------|
D|------2-------------2h4-----------2h4--2-----------------------------------|
A|---0-----------------------------------------------------------------------|
E|---------------------------------------------------------------------------|

     A
e|---------------------------------------------------------------------------|
B|---------2------------------3------------------5-------------3-------------|
G|------------2------------2-----2------------0-----0-------------2----------|
D|------2-------------2h4----------------4/5-----------5\4--4----------------|
A|---0-----------------------------------------------------------------------|
E|---------------------------------------------------------------------------|

| /  slide up
| \  slide down
| h  hammer-on
| p  pull-off
| ~  vibrato
| +  harmonic
| x  Mute note
===============================================================================
Tap to rate this tab
# A B C D E F G H I J K L M N O P Q R S T U V W X Y Z