Song name
# A B C D E F G H I J K L M N O P Q R S T U V W X Y Z

Ryan Adams - Gonna Make You Love Me tab

Help us improve GuitareTab! Take a short survey!
Submitted by Bobby Barrick

Capo 4th Fret

I'm pretty sure this is right... I got it from the "Gold" sheet music

Intro:
---X--X----X--X--X--X----------|
---X--X----X--X--X--X----------|
---9--9----7--7--7--7----------|        X3
---9--9----7--7--7--7----------|
---7--7----5--5--5--5----------|
---X--X----X--X--X--X----------|

Verse Progression: This for the "Riot on the streets..." to the "gonna make you love me 
parts
(X2)
---0--0--0----0--0--0--0--0--0------2--2--2--2------0--0-0--0---|
---2--2--2----3--3--3--3--3--3------3--3--3--3------0--0-0--0---|
---2--2--2----2--2--2--2--2--2------2--2--2--2------1--1-1--1---|  then the
---2--2--2----4--4--4--4--4--4------0--0--0--0------0--0-0--0---|  first part
---X--X--X----X--X--X--X--X--X------0--0--0--0------2--2-2--2---|  of this x2
---X--X--X----X--X--X--X--X--X------X--X--X--X------0--0-0--0---|
Riot on the streets                Its only gonna make you love me more

Next Progression: This is the "This whole world well it was mine to take"
---1--1--1--------0--0-0--0---|
---2--2--2--------0--0-0--0---|
---3--3--3--------1--1-1--1---|
---0--0--0--------0--0-0--0---|
---X--X--X--------2--2-2--2---|
---X--X--X--------0--0-0--0---|
this whole world     it was mine to take

Another Progression: This is the "Come to me..."

--0--0--0--0--0--0--0--0-----1-----|
--0--0--0--0--0--0--0--2-----1-----|
--2--2--2--2--2--2--2--3-----2-----|
--2--2--2--2--2--2--2--0-----3-----|
--0--0--0--0--0--0--0--0-----0-----|
--4--4--4--4--4--3--3--2-----X-----|
Come to me...    little...  its only gonna make you love me more

Then do the first part of the verse progression twice and that is the whole song, it 
through it three times and after the second it breaks into the intro after the entire thing 
that's it.
Related for Gonna Make You Love Me tab