Song name
# A B C D E F G H I J K L M N O P Q R S T U V W X Y Z

Ryan Adams - Memories Of You tab

Highlighted       Show chord diagrams
Memories of you

Capo 3 - All tab/chords relative to capo

Other Notes:  The Em7 is optional as I think its only used in the solo part of the song.
Lots of walk down between chords just try out random hammer ons and pull offs mostly on
second fret of the A and D strings, eventually youll get the sound for it and have the 
walkdowns and such.  In the solo part I pretty much do the same as the Intro with
more emphatic strumming/picking and then almost the same picking pattern with the Em7.  
in paranthesis is optional, and might not be right I just personally like the way it 
 Enjoy.

Chords Used:
  G    C    D   C/B    Am     (Em7)

E-3----0----2----0-----0---|    3-|
B-3----1----3----1-----1---|    3-|
G-0----0----2----0-----2---|    0-|
D-0----2----0----0-----2---|    2-|
A-2----3---------2-----0---|    2-|
E-3------------------------|    0-|

Intro:   G (Make the G shape and strum whilist picking/emphasizing these notes, listen
the song and match it up)
 E------------------------------------------------------------|
 B------------------------------------------------------------|
 G----------------------------------------------------------0-|
 D------------------------0(h2)-----------------------0(h2)---|
 A------------0--0h2--2h3-------------0--0h2--2h3-------------|
 E-------3-----------------------3----------------------------|


G
Memories of you
                             C
That i just don't have right now
               G
I'll make them up

One cup of wanting you
C                     G
Two cups of hoping somehow
                  D
These things come true
          C          C/B         Am
While I'm staring at pictures of you
          C          C/B         Am
While I'm staring at pictures of you
G
Yearning  longing
C         C/B         Am
Making up memories of you
C         C/B         Am
Making up memories of you
C            D            G
For now your picture will do


Dialing you up in my sleep when the nights wearing thin
Won't make it right
My reasons to want to
And 100 reasons to lie
When i don't want to
While I'm staring at pictures of you
While I'm staring at pictures of you
Yearning  longing
Making up memories of you
Making up memories of you
For now your picture will do

(Solo: G Em7)

Memories of you
That i just don't have right now
I'll make them up
One cup of wanting you
Two cups of hoping somehow
These things come true
While I'm staring at pictures of you
While I'm staring at pictures of you Bb
Yearning  longing
Making up memories of you
Tap to rate this tab
# A B C D E F G H I J K L M N O P Q R S T U V W X Y Z