Song name
# A B C D E F G H I J K L M N O P Q R S T U V W X Y Z

Ryan Adams - Halloweenhead tab

e|----10-8-7-------7------7----------10-8-7----7-8-10-10-10b(11)r10-8-8-7-----|
b|-----------10-10---8-10---6-6-------------10----------------------------10--|
g|----------------------------------------------------------------------------|
d|----------------------------------------------------------------------------|
a|----------------------------------------------------------------------------|
E|----------------------------------------------------------------------------|


e|----10-8-7-------7------7-----10-8-7----7-8-10-10---------------------------|
b|-----------10-10---8-10---6-6--------10-------------------------------------|
g|----------------------------------------------------------------------------|
d|----------------------------------------------------------------------------|
a|----------------------------------------------------------------------------|
E|----------------------------------------------------------------------------|
Tap to rate this tab
# A B C D E F G H I J K L M N O P Q R S T U V W X Y Z