Ryan Bandong - Three Seconds tab

Capo 6

Intro & Verse

e |--0---0---0---0---0---0---0---0-|
B |--1---1---1---1---1---1---1---1-|
G |--------------------------------|
D |3---3---3---3-------------------|
A |----------------3---3-----------|
E |------------------------3---3---|

Chorus

e |--0---0---0---0---0---0---0---0-|
B |--1---1---1---1---1---1---1---1-|
G |--------------------------------|
D |2---2---2---2---3---3---3---3---|
A |--------------------------------|
E |--------------------------------|

e |--0---0---0---0---0---0---0---0-|
B |--1---1---1---1---1---1---1---1-|
G |--------------------------------|
D |--------------------------------|
A |3---3---3---3-------------------|
E |----------------3---3---3---3---|

Last verse

e |-0--0--0-|
B |-1--1--1-|
G |---------|
D |-3-------|
A |----3----|
E |-------3-|

ADDITIONAL NOTE:

The song ends with

E |-0-|
B |-1-|
G |---|
D |-3-|
A |---|
E |---|
Tap to rate this tab
 
# A B C D E F G H I J K L M N O P Q R S T U V W X Y Z