Song name
# A B C D E F G H I J K L M N O P Q R S T U V W X Y Z

Ryan Bandong - Sewn Woven tab

I don't remember the last time I tabbed something out, so forgive me if my format is
incorrect. I'm almost 100% sure the notes are correct! Maybe not the names of the chords
but...I've tabbed it out so you can see what I mean. If there are any problems, email: 
me@stephanarias.com.

Capo 3 Standard Tuning

Intro: D - GM7sus2

e----0h2--0h2--|
B----3----3----|
G----0h2--0h2--|     x2
D----0----0----|
A----x----x----|
E----x----3----|


Verse: D - GM7sus2 - Bm7 - Asus4 - GM7sus2

e----2----2----x----x----0h2--|
B----3----3----3----3----3----|
G----2----2----2----2----0h2--|  x2
D----0----0----0----2----0----|
A----x----x----2----0----x----|
E----x----3----x----x----3----|

Chorus: Bm7 - Asus4 - F#m7b13 - GM7sus2

e----x----x----x----2----|
B----3----3----3----3----|
G----2----2----2----2----|  x2
D----0----2----2----0----|
A----2----0----x----x----|
E----x----x----2----3----|

-INTRO-
-VERSE-
-CHORUS-

Chorus End (I'll see you soon~~): D - Am - GM7sus2

e----2----x----2----|
B----3----1----3----|
G----2----2----2----|    x2
D----0----2----0----|
A----x----0----x----|
E----x----x----3----|

(...dressed in my best just for you~~): Bm7 - C#m#5addb9 - D - END ON GM7sus2

e----x----x----2----|
B----3----3----3----|
G----2----2----2----|    x3
D----0----2----0----|
A----2----4----x----|
E----x----x----x----|

e----2----|
B----3----|
G----2----|    x2 Hold
D----0----|
A----x----|
E----3----|

End (...i'll see you soon~~): D - Am9  - GM7sus2 (HOLD LAST NOTE, end on D)

e----2----x----2----|
B----3----0----3----|
G----2----5----2----|    x6
D----0----5----0----|
A----x----0----x----|
E----x----x----3----|
Tap to rate this tab
# A B C D E F G H I J K L M N O P Q R S T U V W X Y Z