Song name
# A B C D E F G H I J K L M N O P Q R S T U V W X Y Z

Ryan Bingham - The Weary Kind tab

-----------------------------------------------------------------------------
                 THE WEARY KIND - Ryan Bingham
-----------------------------------------------------------------------------
Tabbed by: Baldsilver
Email: baldsilver@gmail.com

Tuning: Regular

Seeing as I think that the finger picking that Ryan Bingham does with this song is one 
the best aspects of it, and seeing as I have yet to find an accurate tab for it, here it 
Enjoy.

Chords: D A Bm G

e|------2------2------2------------0------0------0------|
B|-3-------3-----3-------3----2-------2-----2-------2---|
G|-----------2-------------2------------2-------------3-|
D|----0-------------0-----------------------------------|
A|-------------------------------0-------------0--------|
E|------------------------------------------------------|

e|------2------2------2------------3------3------3------|
B|-3-------3-----3-------3----3-------3-----3-------3---|
G|-----------4-------------4------------0-------------0-|
D|------------------------------------------------------|
A|----2-------------2-----------------------------------|
E|-------------------------------3-------------3--------|

e|------2------2------2------------0------0------0------|
B|-3-------3-----3-------3----2-------2-----2-------2---|
G|-----------2-------------2------------2-------------3-|
D|----0-------------0-----------------------------------|
A|-------------------------------0-------------0--------|
E|------------------------------------------------------|

e|------2------2------3------3-------2--------2---------|
B|-3-------3-----3-------3------2-------3---3-3---------|
G|-----------2-------------0--------------2---2---------|
D|----0----------------------------0----------0---------|
A|--------------------------------------------x---------|
E|------------------3-------------------------x---------|
Tap to rate this tab
 
# A B C D E F G H I J K L M N O P Q R S T U V W X Y Z