Song name
# A B C D E F G H I J K L M N O P Q R S T U V W X Y Z

Ryan Bingham - The Weary Kind tab

Intro and Verse

e|---2---2---2---2|---0---0---0---0|---2---2---2---2|---3---3---3---3|
B|3----3--3----3--|2----2--2----2--|3----3--3----3--|0----0--0----0--|
G|----------------|----------------|----------------|----------------|
D|--0---0---0---0-|--2---2---2---2-|--4---4---4---4-|----------------|
A|----------------|----------------|----------------|----------------|
E|----------------|----------------|----------------|--3---3---3---3-|

e|---2---2---3---3|---0---0---0---0|---2---2---3---3|---2---2---2---2|
B|3----3--3----3--|2----2--2----2--|3----3--3----3--|3----3--3----3--|
G|----------------|----------------|----------------|----------------|
D|--0---0---0---0-|--2---2---2---2-|--0---0---------|--0---0---0---0-|
A|----------------|----------------|----------------|----------------|
E|----------------|----------------|----------3---3-|----------------|



Chorus

e|---2---2---2---2|---0---0---0---0|---2---2---2---2|---2---2---2---2|
B|3----3--3----3--|2----2--2----2--|3----3--3----3--|3----3--3----3--|
G|----------------|----------------|----------------|----------------| 1x
D|--4---4---4---4-|--2---2---2---2-|--0---0---0---0-|--0---0---0---0-|
A|----------------|----------------|----------------|----------------|
E|----------------|----------------|----------------|----------------|

e|---3---3---3---3|---2---2---2---2|---0---0---0---0|---0---0---0---0|
B|0----0--0----0--|3----3--3----3--|2----2--2----2--|2----2--2----2--|
G|----------------|----------------|----------------|----------------| 3x
D|----------------|--4---4---4---4-|--2---2---4---4-|--5---5---4---2-|
A|----------------|----------------|----------------|----------------|
E|--3---3---3---3-|----------------|----------------|----------------|

Intro
Verse (2x)
Chorus

Repeat
Tap to rate this tab
# A B C D E F G H I J K L M N O P Q R S T U V W X Y Z