Song name
# A B C D E F G H I J K L M N O P Q R S T U V W X Y Z

Ryan Bingham - The Weary Kind tab

Intro & Verse

e|-----2------2------2------2-------0-----0------0------|
B|3-------3-----3-------3------2-------2----2------2----|
G|------------------------------------------------------|
D|---0------0------0------0-------2------2-----2-----2--|
A|------------------------------------------------------|
E|------------------------------------------------------|

e|-----2------2------2------------3------3------3------3|
B|3-------3-----3-------3-----0------0-----0-------0----|
G|------------------------------------------------------|
D|--4-------4------4------4-----------------------------|
A|------------------------------------------------------|
E|-------------------------------3-----3------3------3--|

e|-----2------2------2------2-------0-----0------0------|
B|3-------3-----3-------3------2-------2----2------2----|
G|------------------------------------------------------|
D|---0------0------0------0-------2------2-----2-----2--|
A|------------------------------------------------------|
E|------------------------------------------------------|

e|-----2------3------3------3-------2-----2------2-----2|
B|3-------3-----3-------3------3-------3----3------3----|
G|------------------------------------------------------|
D|---0------0---------------------0------0-----0-----0--|
A|------------------------------------------------------|
E|-----------------3------3-----------------------------|

Chorus

e|-----2------2------2------------0------0------0------0|
B|3-------3-----3-------3-----2------2-----2-------2----|
G|------------------------------------------------------|
D|--4-------4------4------4------2-----2------2------2--|
A|------------------------------------------------------|
E|------------------------------------------------------|

e|-----2------2------2------2-------2-----2------2------|
B|3-------3-----3-------3------3-------3----3------3----|
G|------------------------------------------------------|
D|---0------0------0------0-------0------0-----0-----0--|
A|------------------------------------------------------|
E|------------------------------------------------------|
                                                         _
                                                          |
e|-----3------3------3------3-----2------2------2------2| |
B|3-------3-----3-------3-----3------3-----3-------3----| |
G|------------------------------------------------------| |
D|------------------------------4------4-----4-------4--| |
A|------------------------------------------------------| |
E|--3-------3------3------3-----------------------------| |
                                                          | 3x
e|-----0------0------0------0-------0-----0------0-----0| |
B|2-------2-----3-------3------5-------5----3------3----| |
G|------------------------------------------------------| |
D|---2------2------4------4-------5------5-----4-----4--| |
A|------------------------------------------------------| |
E|------------------------------------------------------| |
                                                         _|
Tap to rate this tab
# A B C D E F G H I J K L M N O P Q R S T U V W X Y Z