Guitaretab - guitar tabs
Song name
# A B C D E F G H I J K L M N O P Q R S T U V W X Y Z

Ryan Bingham - The Weary Kind tab

Tabbed by DWal

Ryan Bingham
The Weary Kind
Standard Tuning

Most of the other tabs were either incomplete or incorrect.  Here's mine.

Verse

e|-------2-------2-------2-------2-------0-------0-------0-------0|
B|-3---------3-----3---------3-----2---------2-----2---------2----|
G|----------------------------------------------------------------|
D|-----0-------0-------0-------0----------------------------------|
A|-------------------------------------0-------0-------0-------0--|
E|----------------------------------------------------------------|

   1   &   2   &   3   &   4   &   1   &   2   &   3   &   4   &

e|-------2-------2-------2-------2-------3-------3-------3-------3|
B|-3---------3-----3---------3-----0---------0-----0---------0----|
G|----------------------------------------------------------------|
D|----------------------------------------------------------------|
A|-----2-------2-------2-------2----------------------------------|
E|-------------------------------------3-------3-------3-------3--|

   1   &   2   &   3   &   4   &   1   &   2   &   3   &   4   &


e|-------2-------2-------2-------2-------0-------0-------0-------0|
B|-3---------3-----3---------3-----2---------2-----2---------2----|
G|----------------------------------------------------------------|
D|-----0-------0-------0-------0----------------------------------|
A|-------------------------------------0-------0-------0-------0--|
E|----------------------------------------------------------------|

   1   &   2   &   3   &   4   &   1   &   2   &   3   &   4   &


e|-------2-------2-------3-------3-------2-------2-------2-------2|
B|-3---------3-----0---------0-----3---------3-----3---------3----|
G|----------------------------------------------------------------|
D|-----0-------0-----------------------0-------0-------0-------0--|
A|----------------------------------------------------------------|
E|---------------------3-------3----------------------------------|

   1   &   2   &   3   &   4   &   1   &   2   &   3   &   4   &

Chorus

e|-------2-------2-------2-------2-------0-------0-------0-------0|
B|-3---------3-----3---------3-----2---------2-----2---------2----|
G|----------------------------------------------------------------|
D|----------------------------------------------------------------|
A|-----2-------2-------2-------2-------0-------0-------0-------0--|
E|----------------------------------------------------------------|

   1   &   2   &   3   &   4   &   1   &   2   &   3   &   4   &

e|-------2-------2-------2-------2-------2-------2-------2-------2|
B|-3---------3-----3---------3-----3---------3-----3---------3----|
G|----------------------------------------------------------------|
D|-----0-------0-------0-------0-------0-------0-------0-------0--|
A|----------------------------------------------------------------|
E|----------------------------------------------------------------|

   1   &   2   &   3   &   4   &   1   &   2   &   3   &   4   &


e|-------3-------3-------3-------3-------2-------2-------2-------2|
B|-0---------0-----0---------0-----3---------3-----3---------3----|
G|----------------------------------------------------------------|
D|----------------------------------------------------------------|
A|-------------------------------------2-------2-------2-------2--|
E|-----3-------3-------3-------3----------------------------------|

   1   &   2   &   3   &   4   &   1   &   2   &   3   &   4   &


e|-------0-------0-------0-------0-------0-------0-------0-------0|
B|-2---------2-----3---------3-----4---------4-----3---------3----|
G|----------------------------------------------------------------|
D|----------------------------------------------------------------|
A|-----0-------0-------0-------0-------0-------0-------0-------0--|
E|----------------------------------------------------------------|
[ Tab from: http://www.guitaretab.com/r/ryan-bingham/220197.html ]
   1   &   2   &   3   &   4   &   1   &   2   &   3   &   4   &

e|-------3-------3-------3-------3-------2-------2-------2-------2|
B|-0---------0-----0---------0-----3---------3-----3---------3----|
G|----------------------------------------------------------------|
D|----------------------------------------------------------------|
A|-------------------------------------2-------2-------2-------2--|
E|-----3-------3-------3-------3----------------------------------|

   1   &   2   &   3   &   4   &   1   &   2   &   3   &   4   &

e|-------0-------0-------0-------0-------0-------0-------0-------0|
B|-2---------2-----3---------3-----4---------4-----3---------3----|
G|----------------------------------------------------------------|
D|----------------------------------------------------------------|
A|-----0-------0-------0-------0-------0-------0-------0-------0--|
E|----------------------------------------------------------------|

   1   &   2   &   3   &   4   &   1   &   2   &   3   &   4   &


e|-------3-------3-------3-------3-------2-------2-------2-------2|
B|-0---------0-----0---------0-----3---------3-----3---------3----|
G|----------------------------------------------------------------|
D|----------------------------------------------------------------|
A|-------------------------------------2-------2-------2-------2--|
E|-----3-------3-------3-------3----------------------------------|

   1   &   2   &   3   &   4   &   1   &   2   &   3   &   4   &

e|-------0-------0-------0-------0-------0-------0-------0-------0|
B|-2---------2-----3---------3-----4---------4-----3---------3----|
G|----------------------------------------------------------------|
D|----------------------------------------------------------------|
A|-----0-------0-------0-------0-------0-------0-------0-------0--|
E|----------------------------------------------------------------|

   1   &   2   &   3   &   4   &   1   &   2   &   3   &   4   &

Bridge (Instrumental)

e|-------2-------2-------2-------2-------3-------3-------2-------2|
B|-3---------3-----3---------3-----0---------0-----3---------3----|
G|----------------------------------------------------------------|
D|-----0-------0-------0-------0----------------------------------|
A|-----------------------------------------------------2-------2--|
E|-------------------------------------3-------3------------------|

   1   &   2   &   3   &   4   &   1   &   2   &   3   &   4   &


e|-------0-------0-------0-------0-------0-------0-------0-------0|
B|-2---------2-----2---------2-----3---------3-----2---------2----|
G|----------------------------------------------------------------|
D|----------------------------------------------------------------|
A|-----0-------0-------0-------0-------0-------0-------0-------0--|
E|----------------------------------------------------------------|

   1   &   2   &   3   &   4   &   1   &   2   &   3   &   4   &

e|-------3-------3-------3-------3-------2-------2-------2--------|
B|-0---------0-----0---------0-----3---------3-----3---------0----|
G|----------------------------------------------------------------|
D|----------------------------------------------------------------|
A|-------------------------------------2-------2-------2----------|
E|-----3-------3-------3-------3----------------------------------|

   1   &   2   &   3   &   4   &   1   &   2   &   3   &   4   &


e|-------0-------0-------0-------0-------0-------0-------0-------0|
B|-2---------2-----2---------2-----3---------3-----2---------2----|
G|----------------------------------------------------------------|
D|----------------------------------------------------------------|
A|-----0-------0-------0-------0-------0-------0-------0-------0--|
E|----------------------------------------------------------------|

   1   &   2   &   3   &   4   &   1   &   2   &   3   &   4   &

VERSE x3
CHORUS
VERSE x2
CHORUS
BRIDGE
VERSE x2
Related for The Weary Kind tab
The Weary Kind chords by Ryan Bingham