Ryan Bingham - The Weary Kind tab

Ryan Bingham - The Weary Kind

Tuning: Standard

Capo: None

The finger picking is not hard, just listen to the song to get the beat.
I use my index finger(B string), middle finger(High e string), and thumb(D and low E 
to pick.

  D                    A
e|------2-----2--|   e|------0-----0--|
B|--3-----3------|   B|--2-----2------|
G|---------------|   G|---------------|
D|----0-----0----|   D|----2----2-----|
A|---------------|   A|---------------|
E|---------------|   E|---------------|

  Bm                   G
e|------2-----2--|   e|------3-----3--|
B|--3-----3------|   B|--0-----0------|
G|---------------|   G|---------------|
D|----4-----4----|   D|---------------|
A|---------------|   A|---------------|
E|---------------|   E|----3----3-----|

  A11                  A7
e|------0-----0--|   e|------0-----0--|
B|--3-----3------|   B|--5-----5------|
G|---------------|   G|---------------|
D|----4-----4----|   D|----4----4-----|
A|---------------|   A|---------------|
E|---------------|   E|---------------|

Intro: D-D-A-A-Bm-Bm-G-G-D-D-A-A-D-G-D-D

D-D-A-A
Your heart's on the loose
Bm-Bm-G-G
You rolled them seven's with nothing lose
D-D-A-A-D-G-D-D
And this ain't no place for the weary kind

D-D-A-A
You called all your shots
Bm-Bm-G-G
Shooting 8 ball at the corner truck stop
D-D-A-A-D-G-D-D
Somehow this don't feel like home anymore

Bm-Bm-A-A-D-D-D-D
And this ain't no place for the weary kind
G-G-Bm-Bm-A-A11-A7-A11
And this ain't no place to lose your mind
G-G-Bm-Bm-A-A11-A7-A11
And this ain't no place to fall behind
G-G-Bm-Bm-A-A11-A7-A11
Pick up your crazy heart and give it one more try

Intro: D-D-A-A-Bm-Bm-G-G-D-D-A-A-D-G-D-D

D-D-A-A
Your body aches'
Bm-Bm-G-G
Playing your guitar and sweating out the hate
D-D-A-A-D-D-D-D
The days and the nights all feel the same

D-D-A-A
Whiskey has been
Bm-Bm-G-G
A thorn in your side and it doesn't forget
D-D-A-A-D-G-D-D
the highway that calls for your heart inside

Bm-Bm-A-A-D-D-D-D
And this ain't no place for the weary kind
G-G-Bm-Bm-A-A11-A7-A11
And this ain't no place to lose your mind
G-G-Bm-Bm-A-A11-A7-A11
And this ain't no place to fall behind
G-G-Bm-Bm-A-A11-A7-A11
Pick up your crazy heart and give it one more try

D-D-Bm-Bm-A-A11-A7-A11-G-G-Bm-Bm-A-A11-A7-A11

D-D-A-A
Your lovers won't kiss'
Bm-Bm-G-G
It's too damn far from your fingertips
D-D-A-A-D-D-D-D
You are the man that ruined her world

D-D-A-A
Your heart's on the loose
Bm-Bm-G-G
You rolled them seven's with nothing lose
D-D-A-A-D-G-D
And this ain't no place for the weary kind
Tap to rate this tab
 
# A B C D E F G H I J K L M N O P Q R S T U V W X Y Z