Song name
# A B C D E F G H I J K L M N O P Q R S T U V W X Y Z

Ryan Bingham - Hallelujah tab

If its hard to do what i have tabbed, try holding the 3 on the b string with
you pinky and the 2 on the a string with you middle finger, and then try and play it.

 Capo 4

|-----0---------0---------0--------------------|
|--3---3--3--3----3-3--3---3-3----0------------|
|---0---0-----0----0----0---0------0-----------| 
|----2---------2---------2-----------0----0----|
|-0---------2--------3----------3/5------------|
|--------------------------------------3-----3-|


|-----------------------------|
|--3--3-3--3-3--3--3-3--3--3-3|
|-----------------------------|    v = downstroke 
|--2--2-2--2-2----------------|    ^ = upstroke 
|--2--2-2--2-2--2--2-2--2--2-2|
|---------------3--3-3--3--3-3|
   v  v ^  v ^  v  v ^  v  v ^             
Tap to rate this tab
# A B C D E F G H I J K L M N O P Q R S T U V W X Y Z