Song name
# A B C D E F G H I J K L M N O P Q R S T U V W X Y Z

Ryan Bingham - Sunrise tab

Song: Sunrise
Album: Mescalito
Artist: Ryan Bingham
Tabbed by: Dingle


This is what Ryan plays himself.  I've watched several youtube clips to confirm.
He pretty much just repeats the same chord progression over and over. There are
other ways to play this by yourself but this is what he plays.

Intro
---------------------------|
---------------------------|
----2---4---6---9----------|
----2---4---6---9----------|  x3
--------2---4---7----------|
---------------------------|


---------------------------|
---------------------------|
----2---4---6---8---9------|
----2---4---6---8---9------|
--------2---4---6---7------|
---------------------------|


Verse & Chorus
-----------------------------------|
---9-------------------------------|
---9---9---6---2---2---4---6---9---|
---7---9---6---2---2---4---6---9---| Repeat until your hands hurt
-------7---4-----------2---4---7---|
-----------------------------------|


This goes out to Tina.
Tap to rate this tab
# A B C D E F G H I J K L M N O P Q R S T U V W X Y Z