Song name
# A B C D E F G H I J K L M N O P Q R S T U V W X Y Z

Ryan Bingham - Borracho Station tab

Artist: Ryan Bingham                                       Tuning: DADGBE
Title: Borracho                                            Tabbed by: Frits
Key: Gm

E|-------------------------------------------------------|
B|-------------------------------------------------------|
G|-------------------------------------------------------|
D|---------------0h1p0h1p0h1~-1s4s5--5-5-5-5-5s(4)s1-----|
A|---------0-1-3-----------------------------------------|
D|-0-1-3-5-----------------------------------------------|

                                                  Last line of 'chorus'(spanish part)
E|------------------------------|------------------------|
B|----3-3----4-4----3-3----3-3--|----3----3----1----1----|
G|----3-3----5-5----2-2----3-3--|----2----2----2----2----|
D|------------------------------|------------------------|
A|---------3--------------------|------------------------|
D|--5-------------0------5------|--0----0----0----0------|
Tap to rate this tab
 
# A B C D E F G H I J K L M N O P Q R S T U V W X Y Z