Song name
# A B C D E F G H I J K L M N O P Q R S T U V W X Y Z

Ryan Cabrera - Enemies Acoustic tab

Help us improve GuitareTab! Take a short survey!
Enemies by Ryan Cabrera
tuning 1/2 step down


Intro:

eb-----------------3----3---5----3-----3-----------------------------|
Bb-----------------3----3---5----3-----3-----------------------------|
Gb-------------------------------------------------------------------|
Db--2----5----2---------2---4----2-----------------------------------|
Ab--2----5----2----2----3---5----3-----2-----------------------------|
Eb-----------------3-------------------3-----------------------------|


verse1/verse2

eb-----------------3----3---5----3-----3-----------------------------|
Bb-----------------3----3---5----3-----3-----------------------------|
Gb-------------------------------------------------------------------|
Db--2----5----2---------2---4----2-----------------------------------|
Ab--2----5----2----2----3---5----3-----2-----------------------------|
Eb-----------------3-------------------3-----------------------------|


Chorus:

eb---3-----3---3----3------------------------------------------------|
Bb---3-----3---3----3------------------------------------------------|
Gb---------2---------------------------------------------------------|
Db---2---------2-----------------------------------------------------|
Ab---3---------2----2------------------------------------------------|
Eb---------2--------3------------------------------------------------|



Bridge:

eb----3---------3---------------------------------------------------|
Bb----3---------3---------------------------------------------------|
Gb------------------------------------------------------------------|
Db----2-------------------------------------------------------------|
Ab----3---------2---------------------------------------------------|
Eb--------------3---------------------------------------------------|



To See How Ryan plays it http://www.youtube.com/watch?v=4TzlvvlGZ_I
Related for Enemies Acoustic tab