Guitaretab - guitar tabs
Song name
# A B C D E F G H I J K L M N O P Q R S T U V W X Y Z

Ryan Cabrera - Echo Park tab

Highlighted       Show chord diagrams
Ryan Cabrera  Echo Park

(Intro):

   F#m          E            D            D
e|-----2------------2------------2-----------|
B|-------2------------2------------3---------|
G|---2-----5p2----2-----5p2----2-----5p2-----|
D|-4------------2------------0------------0--|

   F#m          E            D
e|-----2------------2-----------|
B|-------2------------2---------|
G|---2-----5p2----2-----5p2-----|
D|-4------------2------------0--|

(Solo):
   D     A        D     A           D     A       D     A
B|-2h3-3-2--------------------------2h3-3-2-------------------------|
G|----------2h4-2----------------------------2h4-2------------------|
D|------------------2h4-2----------------------------2h4-2----------|
A|-------------------------2h4-2-0--------------------------2h4-2-0-|

D            A         D
  Today it rained in L.A.
  A           D     A           D   A
Smog's been beaten down for a while
D          A            D        A         D
  Drove up a hill where I could feel the ocean
     A        D    A
And see for miles
F#m               D           A
  Feels like the top of the world
       E        F#m         D    E
Right here the world's all mine

(Chorus):
        Bm          D               A             E
Here I lie...i.i.i..i watching the cars on the highway
                      Bm              D             A     E
You're one of those lights..i.i.i.i.ights that's driving away
                     Bm                       D
I'm standing in the dark wondering where you are
                 A    E
I'm leaving my heart here
In Echo Park

(Solo):
   D     A        D     A
B|-2h3-3-2--------------------------|
G|----------2h4-2-------------------|
D|------------------2h4-2-----------|
A|-------------------------2h4-2-0--|

D            A               D
  Today you said you were leaving,
A                   D      A     D   A
  Couldn't let you see me cry
D           A             D
  You can take what you want to
 A         D        A       D    A
But won't let you take my pride
F#m               D           A
  Feels like the top of the world
       E        F#m         D    E
Right here the world's all mine

(Repeat Chorus)
[ Tab from: http://www.guitaretab.com/r/ryan-cabrera/133132.html ]
In this part there are 2 guitars doing different things. One does the intro again and 
other one goes like this:
   F#m          E             D
e|----------------------------------10-------10-------10-----|
B|------10------------12---------------10-------10-------10--|
G|---------11------------13------11-------11-------11--------|
D|---11------------13---------12-----------------------------|
A|-9------------11-------------------------------------------|

   F#m          E             D
e|----------------------------------14-------12-------10--------|
B|------10------------12---------------10-------10-------10-----|
G|---------11------------13------11-------11-------11--------11-|
D|---11------------13---------12--------------------------------|
A|-9------------11----------------------------------------------|

   F#m          E             D
e|----------------------------------10-------12-------10--------|
B|------10------------12---------------10-------10-------10-----|
G|---------11------------13------11-------11-------11--------11-|
D|---11------------13---------12--------------------------------|
A|-9------------11----------------------------------------------|
And the cars look smaller from here...

   F#m             E                D
e|----------------------------------------14-------12-------10--------|
B|------10---------------12------------------10-------10-------10-----|
G|---------11---------------13---------11-------11-------11--------11-|
D|---11-------11------13-------13---12--------------------------------|
A|-9---------------11-------------------------------------------------|
And the sky looks bigger from here...

   F#m          E             D
e|----------------------------------10-------12-------10--------|
B|------10------------12---------------10-------10-------10-----|
G|---------11------------13------11-------11-------11--------11-|
D|---11------------13---------12--------------------------------|
A|-9------------11----------------------------------------------|
And now that everything is clear...
                  Dm
Everything falls apart...

        Bm          D               A             E
Here I lie...i.i.i..i watching the cars on the highway
                      Bm              D             A    C#7
You're one of those lights..i.i.i.i.ights that's driving away
                    F#m                      Dm    A   D
I'm standing in the dark wondering where you aaaaaaaaaaaare...
                         A    D
Im wondering where you are
         A    D
In Echo Park
         A
In Echo Park


------------------------------------------------
Tabbed by Camilla Bazzarella
Related for Echo Park tab