Song name
# A B C D E F G H I J K L M N O P Q R S T U V W X Y Z

Ryan Cabrera - Walking On Water tab

Walking On Water – This Providence
Tabbed by: SWLABR
Tuning: Standard

Intro:
e|-----------------------------------------------------------------------|
B|-----------------------------------------------------------------------|
G|-------------------------------------------3-3-4-4-3-3-----------------|
D|-----------------------------------------------------------------------|
A|-----------2-2--2/6-6\2------2-4-2-4-2---------------------6-4---------|
E|--11\--4-4---------------3-3------------2-2------------0-0-----7-6-----|

e|-----------------------------------------------------------------------|
B|-----------------------------------------------------------------------|
G|----------------------------------------3-3-4-4-3-3--------------------|
D|-----------------------------------------------------------------------|
A|--------2-2--2/6-6/2------2-4-2-4-2---------------------6-4------------|
E|----4-4---------------3-3------------2-2------------0-0-----7-6--------|

Verse 1:
     Who would I be….
e|--4-4-4444--4-4-4444--4-4-4444------------------|
B|--4-4-4444--4-4-4444--4-4-4444------------------|  GUITAR 1
G|--4-4-4444--4-4-4444--4-4-4444--9-9-9--6-6-6----|
D|--6-6-6666--5-5-5555--4-4-4444--9-9-9--6-6-6----|  x2
A|--6-6-6666--6-6-6666--6-6-6666--7-7-7--4-4-4----|
E|--4-4-4444--4-4-4444--4-4-4444------------------|

e|--------------------------------------------------------------|
B|--------------------------------------------------------------|  GUITAR 2
G|--------------------------------9-9-9--6-6-6------------------|
D|---6—-----6\5-------5\4----4----9-9-9--6-6-6------------------|
A|---6------6\5-------5\4----4----7-7-7--4-4-4------------------|  x2
E|---4—-----4\3—------3\2----2----------------------------------|

Pre chorus:
  You don’t let go easily….
e|-----------------------------------------------------------------------|
B|-----------------------------------------------------------------------|
G|-----------------------------------------------------------9--8--6-----|
D|-2-2---2-4-4---4-6-6---4-6-6---6-2-2---2-4-4---4-6-6---6---9--8--6-----|
A|-2-2---2-4-4---4-6-6---4-6-6---6-2-2---2-4-4---4-6-6---6---7--6--4-----|
E|-0-0---0-2-2---2-4-4---2-4-4---4-0-0---0-2-2---2-4-4---4---------------|

Chorus:
    Whoa…   I don’t…. afraid of the wind….I’ve heard… walking on water
e|-----------------------------------------------------------|
B|-4--------------------------------4------------------------|
G|-4--------4-----------------------4----------4-------------|
D|-4--------6----------2------------4----------6-------2-----|
A|-2--------6----------2------------2----------6-------2-----|
E|----------4----------0-----------------------4-------0-----|

  Now…           in the midst of a storm
e|----------2------------------------------|
B|-4--------2------------------------------|
G|-4--------3------------------------------|
D|-4--------4------------------------------|
A|-2--------4------------------------------|
E|----------2------------------------------|

INTRO
Verse 2:
   My life fell apart…
e|------------4-4-4444--4-4-4444------------------|
B|------------4-4-4444--4-4-4444------------------|  GUITAR 1
G|------------4-4-4444--4-4-4444--9-9-9--6-6-6----|
D|------------5-5-5555--4-4-4444--9-9-9--6-6-6----|  x2
A|------------6-6-6666--6-6-6666--7-7-7--4-4-4----|
E|------------4-4-4444--4-4-4444------------------|

e|----------------------------------------------------------|
B|----------------------------------------------------------|   GUITAR 2
G|----------------------------9-9-9--6-6-6------------------|
D|---6—-----6\5----5\4----4---9-9-9--6-6-6------------------|  x2
A|---6------6\5----5\4----4---7-7-7--4-4-4------------------|
E|---4—-----4\3—---3\2----2---------------------------------|

Pre-chorus:
  You don’t let go easily…
e|----------------------------------------------------------------------|
B|----------------------------------------------------------------------|
G|-----------------------------------------------------------9----------|
D|-2-2---2-4-4---4-6-6---4-6-6---6-2-2---2-4-4---4-6-6---6---9----------|
A|-2-2---2-4-4---4-6-6---4-6-6---6-2-2---2-4-4---4-6-6---6---7----------|
E|-0-0---0-2-2---2-4-4---2-4-4---4-0-0---0-2-2---2-4-4---4--------------|

Chorus:
    Whoa…   I don’t…. afraid of the wind….I’ve heard… walking on water
e|-----------------------------------------------------------|
B|-4--------------------------------4------------------------|
G|-4--------4-----------------------4----------4-------------|
D|-4--------6----------2------------4----------6-------2-----|
A|-2--------6----------2------------2----------6-------2-----|
E|----------4----------0-----------------------4-------0-----|

 Now, Whoa…I don’t… afraid….sinking ship… I’ve heard… walking on water
e|-----------------------------------------------------------|
B|-4--------------------------------4------------------------|
G|-4--------4-----------------------4----------4-------9-9---|
D|-4--------6---------2-------------4----------6-------9-9---|
A|-2--------6---------2-------------2----------6-------7-7---|
E|----------4---------0------------------------4-------------|

Intrumental:
 now…
e|----------------------------------------------|
B|----------------------------------------------|  GUITAR 2
G|------------------------6-6-------------------|
D|---66-----5-5-----44----6-6-------------------|
A|---66-----5-5-----44----4-4-------------------|  x2
E|---44-----3—3-----22--------------------(0-2)-| <--1st time through only

e|----------------------------------------|
B|-------4--------------------------------|
G|-------4--------------------------------|       GUITAR 1
D|----------------------------------------| (2nd time through only)
A|----------------------------------------|
E|----------------------------------------|

Bridge:
  Take me away…
e|-4444---4444---4444--------------------|
B|-4444---4444---4444---6-6--------------|   Guitar 1
G|-4444---4444---4444---6-6--------------|  
D|-6666---5555---4444---6-6--------------|  x2
A|-6666---6666---6666---4-4--------------|
E|-4444---4444---4444--------------------|

e|---------------------------------------|
B|----------------------6-6--------------|   Guitar 2
G|----------------------6-6--------------|
D|----------------------6-6--------------|  x2
A|-6\---6-5\----5-4\--4-4-4--------------|
E|-4\---4-3\----3-2\--2-----------(0-2)--| <--1st time through only

Chorus:
    Whoa…   I don’t…. afraid of the wind….I’ve heard… walking on water
e|-----------------------------------------------------------|
B|-4--------------------------------4------------------------|
G|-4--------4-----------------------4----------4-------------|
D|-4--------6----------2------------4----------6-------2-----|
A|-2--------6----------2------------2----------6-------2-----|
E|----------4----------0-----------------------4-------0-----|

 Now, Whoa…I’m singing… rain… That’s a joy…I’ve heard… walking on water now.
e|---------------------------------------------------------------|
B|-4------------------------------------4------------------------|
G|-4--------4---------------------------4----------4-------9-9---|
D|-4--------6------------2--------------4----------6-------9-9---|
A|-2--------6------------2--------------2----------6-------7-7---|
E|----------4------------0-------------------------4-------------|



Who would I be?
Where would I be going if I didn't have you to shake my face?
Why do you care?
Why do you care so much?
Your love's such a stretch for my faith.

You don't let go easily.
No, you hold onto me tight.
And it's just what I need.
To get me through the storm tonight.

Whoa, I don't have to be afraid of the wind.
And that's good to know.
'Cause I've heard it all before.
But I'm walking on water now.
In the midst of a storm.

My life fell apart and you were right there.
The fire turned my whims into smoke.
I choke on your words that somehow make sense.
And I dance with a joy only found in the pain.

You don't let go easily.
No, you hold onto me tight.
And it's just what I need.
To get me through the storm tonight.

Whoa, I don't have to be afraid of the wind.
And that's good to know.
'Cause I've heard it all before.
But I'm walking on water now.

Whoa, I don't have to be afraid of this sinking ship.
And that's good to know.
'Cause I've heard it all before.
But I'm walking on water now.

Take me away to a heavenly place.
Rescue me my love, my saving grace.

Whoa, I don't have to be afraid of the wind.
And that's good to know.
'Cause I've heard it all before.
But I'm walking on water now.

Whoa, I'm singing in the rain.
Well that's a joy I've never known.
'Cause I've heard it all before.
But I'm walking on water now.


| /  slide up
| \  slide down
| h  hammer-on
| p  pull-off
| ~  vibrato
| +  harmonic
| x  Mute note
=============================================================================
Tap to rate this tab
# A B C D E F G H I J K L M N O P Q R S T U V W X Y Z