Song name
# A B C D E F G H I J K L M N O P Q R S T U V W X Y Z

Ryan Cabrera - True chords

Capo 2nd Fret
Standard Tuning

E--------5-----4~-----|--------2-----0~-----|
B---0-2--------5~-----|---0-2--------2~-----|
G---------------------|---------------------|
D---------------------|---------------------|
A---------------------|---------------------|
E---0----------0~-----|---0----------0~-----|
      I wont talk         I wont breathe

E---------------------|---------------------|
B--------2-----0~-----|---------------------|
G---1-2--------1~-----|--------2-----1~-----|
D---------------------|---2-4--------2~-----|
A---------------------|---------------------|
E---0----------0~-----|---0----------0~-----|
      I wont look      till you finally see 

E--------5-----4~-----|--------2-----0~-----|
B---0-2--------5~-----|---0-2--------2~-----|
G---------------------|---------------------|
D---------------------|---------------------|
A---------------------|---------------------|
E---0----------0~-----|---0----------0~-----|
That you belong with me  


You might think I don't look
But deep inside
In the corner of my mind
I'm attached to you

            E             B
I've waited all my life to cross this line
C#m                     A
to the only thing that's true
     E                 B
So I will not cry, it's time to try
C#m                 A
anything to be with you


E-----------------0~-----|
B---2---4---------2~-----|
G---2---4---------2~-----|
D-----------------2~-----|
A------------------------|
E---2---4----------------|
  All My Life I've waited,

E------------------------|E--------5-----4~-----|--------2-----0~-----|
B------------------------|B---0-2--------5~-----|---0-2--------2~-----|
G------------------------|G---------------------|---------------------|
D------------------------|D---------------------|---------------------|
A------------------------|A---------------------|---------------------|
E------------------------|E---0----------0~-----|---0----------0~-----|
                this is true~

Verse is the same as the intro.


Tap to rate this tab
 
# A B C D E F G H I J K L M N O P Q R S T U V W X Y Z