Song name
# A B C D E F G H I J K L M N O P Q R S T U V W X Y Z

Ryan Cabrera - Shame On Me tab

Artist: Ryan Cabrera
Song: Shame on me
Tuning: 1/2 step down

INTRO/VERSE:

Am, E7, C9, E7

PRE-CHORUS:

e|--5----3----3----|           |--0--|
b|--6----5----3----|           |--0--|
G|--7----5----4----|           |--1--|
D|--7----5----5----|   END ON: |--2--|
A|--5----3----5----|           |--2--|
E|--x----x----3----|           |--0--|

CHORUS:

e|--5---5---1---3---|
b|--5---6---1---3---|
G|--5---7---0---0---|
D|--7---7---2---4---|
A|--7---5---3---5---|
E|--5---x---x---x---|

END CHORUS WITH:

e|--5----7----0----3----1----3---|
b|--6----7----1----3----1----3---|
G|--7----9----2----0----2----0---|
D|--7----9----2----0----3----0---|
A|--5----7----0----2----3----2---|
E|--x----x----x----3----1----3---|

BRIDGE:

e|--3----5----3----5----7----6----5----8----|
b|--3----5----3----5----7----6----5----8----|
G|--3----5----3----5----9----8----7----10---|
D|--5----7----5----7----9----8----7----10---|
A|--5----7----5----7----7----6----5----8----|
E|--3----5----3----5----x----x----x----x----|

Tap to rate this tab
 
# A B C D E F G H I J K L M N O P Q R S T U V W X Y Z