Song name
# A B C D E F G H I J K L M N O P Q R S T U V W X Y Z

Ryan Cabrera - Last Winter tab

Help us improve GuitareTab! Take a short survey!
Song: last winter
Artist: Ryan Cabrera
Tuning: Standard

CAPO 1st.
Intro:
e|--0-----0--|
b|--0-----0--|
G|--2-----4--| harmonics on 7th fret
D|--0-----0--|
A|--x-----x--|
E|--2-----3--|

Into cont...
e|--0-----0--|
b|--0-----0--|
G|--7-----6--| harmonics on 12th fret
D|--0-----0--|
A|--x-----0--|
E|--7-----x--|

Verse:
e|--0----0----0----0--|
b|--0----0----0----0--|
G|--2----7----6----7--|
D|--0----0----0----0--|
A|--x----x----0----x--|
E|--2----7----x----7--|

Pre chorus:
e|--0----0----0----0--|
b|--0----0----0----0--|
G|--7----6----9----7--|
D|--0----0----0----0--|
A|--x----x----x----x--|
E|--7----7----7----7--|

Chorus:
e|--2----3----2----0--|
b|--3----3----3----3--|
G|--4----0----2----2--|
D|--4----0----0----2--|
A|--2----2----0----0--|
E|--x----3----x----x--|

Bridge: (flat pick these chords- flat pick is basically makeing up a picking pattern for it..)

e|--0----0----0----0--|
b|--0----0----0----0--|
G|--2----4----7----6--|
D|--0----0----0----0--|
A|--x----x----x----0--|
E|--2----3----7----x--|

END song by playing pre chorus and ending on "7x0700"
Related for Last Winter tab