Song name
# A B C D E F G H I J K L M N O P Q R S T U V W X Y Z

Ryan Cabrera - Blind Sight tab

Artist: Ryan Cabrera
Song: Blindsight
Tuning: 1/2 step down

VERSE:

e|--0-----0-----0--|
b|--8-----1-----7--|
G|--0-----0-----0--|
D|--9-----2-----7--|
A|--7-----3-----5--|
E|--x-----x-----x--|

"But you always had to try and fight"
e|--0----3----3----0----0--|
b|--0----3----3----0----0--|
G|--0----2----0----2----8--|
D|--2----0----0----2----9--|
A|--2----0----2----0----9--|
E|--0----2----3----x----7--|
(DOES THIS TWICE IN SECOND VERSE)

CHORUS:

G, D, Em, C9

BRIDGE:

e|--0---3---3---0---0---0---7---0---3---3---0---0---0--|
b|--0---3---3---1---1---0---8---0---3---3---0---1---0--|
G|--0---2---0---0---0---8---9---0---2---0---2---0---8--|
D|--2---0---0---2---0---7---9---2---0---0---2---2---9--|
A|--2---0---2---3---2---6---7---2---0---2---0---3---9--|
E|--0---2---3---x---x---x---x---0---2---3---x---x---7--|
Tap to rate this tab
# A B C D E F G H I J K L M N O P Q R S T U V W X Y Z