Guitaretab - guitar tabs
Song name
# A B C D E F G H I J K L M N O P Q R S T U V W X Y Z

Ryan Cabrera - Exit To Exit Live tab

Artist: Ryan Cabrera
Song: Exit to Exit
Tuning: 1/2 Step Down

Intro/Verse
Eb|-0--3--2--2--|
Bb|-0--3--3--3--|
Gb|-0--0--2--0--|
Db|-2--0--0--2--|
Ab|-2--2-----3--|
Eb|----3--------|

Pre Chorus   
Eb|-0--3--3--2|-3|
Bb|-0--3--3--3|-3|
Gb|-0--0--0--2|-2|
Db|-2-0--2--0|-0|
Ab|-2-2--3---|--|
Eb|----3------|--|

Chorus
Eb|-3--2--3--2|-2-3--2--3|
Bb|-3--3--3--3|-3-3-3--3|
Gb|-0--2--0--0|-4-0-4--0|
Db|-0--0--2--2|-4-2-4--2|
Ab|-2-----2--3|-2-3--2--3|
Eb|-3-----0---|-x-----x---|
[ Tab from: http://www.guitaretab.com/r/ryan-cabrera/66426.html ]
Solo:
Eb|-0-------0---12---0---0--0---0----0--0---0----0---x-x-x-x---x-x-x--x-x
Bb|--0------0---10---0---11s12--12---11s12--12---0---x-x-x-x---x-x-x--x-x
Gb|---0-----0---0----0---11s12--12---11s12--12---0---x-x-x-x---x-x-x--x-x
Db|----2----2---11---2---10s11--11---10s11--11---2---x-x-x-x---x-x-x--x-x
Ab|-----2---2---12---2---11s12--12---11s12--12---2---0-0-0-0---0-0-0--0-0
Eb|------0--0---0----0---0--0---0----0--0---0----0---0-0-0-14--0-0-13-0-0

Eb|-x--x-x-x---0---x-x-x-x--x-x-x--x-x-x--x-x-x---0---12--12---0--0--0--0-
Bb|-x--x-x-x---0---x-x-x-x--x-x-x--x-x-x--x-x-x---0---10--10---11s12-12-12
Gb|-x--x-x-x---0---x-x-x-x--x-x-x--x-x-x--x-x-x---0---0---0----11s12-12-12
Db|-x--x-x-x---2---x-x-x-x--x-x-x--x-x-x--x-x-x---2---11--11---10s11-11-11
Ab|-0--0-0-0---2---0-0-0-0--0-0-0--0-0-0--0-0-0---2---12--12---11s12-12-12
Eb|-11-0-0-10--0---0-0-0-18-0-0-16-0-0-14-0-0-13--0---0---0----0--0--0--0-

Eb|-0---x-x-x-x--x-x--x-x-x--x-x-x-x-x-x-x-x-x-x-|
Bb|-0---x-x-x-x--x-x--x-x-x--x-x-x-x-x-x-x-x-x-x-|
Gb|-0---x-x-x-x--x-x--x-x-x--x-x-x-x-x-x-x-x-x-x-|
Db|-2---x-x-x-x--x-x--x-x-x--x-x-x-x-x-x-x-x-x-x-|
Ab|-2---0-0-0-0--0-0--0-0-0--0-0-0-0-0-0-0-0-0-0-|
Eb|-0---0-0-0-14-0-13-0-0-11-0-9-7-6-2-4-6-7-0-9-|

((KEEP PLAYING LAST PART FASTER AND FASTER))


Bridge
022000,x02020, x32033,x00233

Related for Exit To Exit Live tab