Guitaretab - guitar tabs
Song name
# A B C D E F G H I J K L M N O P Q R S T U V W X Y Z

Ryan Cabrera - True Acoustic tab

**********Attention every1, sorry about the inconvenience because I tabbed this on
standard when it should of been half step tuned down. I was realizing why I couldn't
hit the right sounds while tabbing so therefore i'mma retab the whole thing and give
u guys a better version tab when I have time.**************


Ryan Cabrera - True (Acoustic)
Tabbed by: Ronald Tang
Date: 2/19/06
Email: p2dakpokguy@yahoo.com
AIM: NiGapLziTzrON
Tuning: Standard

[INTRO] (Add the taps yourself)
e| ---------------------------------------------------------------|
B| ---------------------------------------------------------------|
G| -5---4------0h2----4----5---4-----0h2---0----------------------|
D| ---0---0-0------0----0----0---0-0-----0----0-------------------|
A| ---------------------------------------------------------------|
E| -3---3------3------3----3---3-----3-----3----------------------|


[VERSE] (lyrics are not aligned with tabs)
   I won't talk, I won't breathe, I won't move till you finally see,
   that you belong with me..
e| -----------------------------------------0-------------0-------|
B| ------------------------------------------0----------3---------|
G| -5---4----5-5-4-----5-5--4----5-5-4--------0-0h2-----4---------|
D| ---0---0---------0---------0-----------5----------0--0---------|
A| --------------------------------------7------------------------|
E| -3---3----3-3-3-----3-3--3----3-3-3--7-------------------------|

   You might think, I don't look, but deep inside the corner of my mind,
   I'm attached to you..
e| ------------------------------------------0------------0-------|
B| -------0h1---------------------------------0---------3---------|
G| -5---4-----5-5-4----5-5-4----5-5-4----------0-0h2----4---------|
D| ---0---0---------0--------0--------0----5---------0--0---------|
A| ---------------------------------------7-----------------------|
E| -3---3-----3-3-3----3-3-3----3-3-3----7------------------------|

   I'm weak, it's true, I'm affraid to know the answer, do you want me too,
   cause my heart is falling faster..
e| --------------------------------------------------------------------|
B| -----4---6---------------------------------------------7------------|
G| -6-----------8--11--8-11--10--8--6---6--10-10--11----8---10--8--8---|
D| ---4-------8-------8---------------4--------------------------------|
A| ----------------------------9-----------------------9------9--------|
E| -7---7---9---9--11--------9------7---7--9--9---11--------9------7---|

[ Tab from: http://www.guitaretab.com/r/ryan-cabrera/69351.html ]
[CHORUS]
   I've waited all my life, to cross this line, to the only thing that's true..
   so I will not hide, it's time to try, anything to be with you, all my life I've 
this is true..
e| --2-2---1-2---2-2-------2-2----2-2----1-1---2-2------2-2---------------|
B| --2-2---2-2---2-2-------2-2----2-2----2-2---2-2------2-2-2----3-4---3--|
G| --------------------------------------------------------------4-5------|
D| ------------------------------------------------------------0----------|
A| -------------------1-2---------------------------1-2----------------2--|
E| -2-----1-----1---------------2------1------1---------------------------|


[VERSE]
   You don't know, what you do, everytime you walk into the room,  I'm afraid to 
BELOW)
e| ------------------------------------------------------------------|
B| -------------0h1--------------------0h1---------------------------|
G| -5------4--------5-5-4------5---4-------5-5-4----5-5-4--5-5-4-----|
D| ---0-0----0--0---------0-0----0-----0---------0---------------0---|
A| ------------------------------------------------------------------|
E| -3------3--------3-3-3------3---3-------3-3-3----3-3-3--3-3-3-----|
   I'm afraid to move..
e| -----0--------0--|
B| ------0------3---|
G| -------0h2---4---|
D| ---5-------0-0---|
A| --7--------------|
E| -7---------------|

   I'm weak, it's true, I'm just scared to know the ending,
   do you see me too, Do you even know you met me..
e| ------------------------------------------------------------------|
B| -----4---6---------------------------4---------------7------------|
G| -6-----------8--11--8-11--10--8--6-----10-10--11---8----10--8--8--|
D| ---4-------8-------8---------------4------------------------------|
A| ----------------------------9---------------------9-------9-------|
E| -7---7---9---9--11--------9------7-----9--9---11--------9------7--|


[CHORUS]
   I've waited all my life, to cross this line, to the only thing that's true..
   so I will not hide, it's time to try, anything to be with you,
   all my life I've waited, this is true..
e| --2-2---1-2---2-2-------2-2----2-2----1-1---2-2------2-2---------------|
B| --2-2---2-2---2-2-------2-2----2-2----2-2---2-2------2-2-2----3-4---3--|
G| --------------------------------------------------------------4-5---0--|
D| ------------------------------------------------------------0----------|
A| -------------------1-2---------------------------1-2----------------2--|
E| -2-----1-----1---------------2------1------1---------------------------|


   I know when I go, I'll be on my way to you, the way that's true
e| ---------------------------------------4-4-4-4---3--3--3-------|
B| -------6-6---------6-6---------6-6-----4-4-4-4---3--3--3-------|
G| -----6----------6----------6---------------0-0-----------------|
D| ---5----------5---5------5---5-------------------2-------------|
A| -6----6-----5----------4-------------3--------------2--3-------|
E| ---------------------------------------------------------------|


(THIS IS WHERE U STRUM)
[THE 4 CHORDS USED IN ENDING CHORUS]
EM7   - 022033
D     - 000232
Cadd9 - 032033
G     - 320033

            [CAdd9]
Way that's true, way that's true yea

        [G]                   [D]
I've waited all my life, to cross this line

   [Em7]                [Cadd9]
To the only thing that's true

     [G]                [D]
So I will not hide, it's time to try

 [Em7]          [Cadd9]
Anything to be with you

[Em7]  [Cadd9]   [D - XX0232]
All my life I've waited

  [3x0033]
This is true..


ENJOY! ;]
Related for True Acoustic tab
Advertisement will be closed in 10 seconds