Song name
# A B C D E F G H I J K L M N O P Q R S T U V W X Y Z

Ryan Cabrera - Lets Take Our Time tab

Tabbed By: Daniel The man MPc4


Intro/Verse:

-5------1------3------------------------------------------------|
-5------1------3------------------------------------------------|
-5-x8---2-x4---4-x4---------------------------------------------|
-7------3------5------------------------------------------------|
-7------3------5------------------------------------------------|
-5------1------3------------------------------------------------|


Chorus: Strum the chords
-1-3-5-----5-4-3-2-1---1-3--------------------------------------|
-1-3-5-----5-4-3-2-1---1-3--------------------------------------|
-2-4-5-x3--5-4-3-2-1---1-3--------------------------------------|
-3-5-7-----7-6-5-4-3---3-5--------------------------------------|
-3-5-7-----7-6-5-4-3---3-5--------------------------------------|
-1-3-5-----5-4-3-2-1---1-3--------------------------------------|

Then just strum the intro a few times then go back to intro

-5-----1-----3------------------------------------------------|
-5-----1-----3------------------------------------------------|
-5-----2-----4------------------------------------------------|
-7-----3-----5------------------------------------------------|
-7-----3-----5------------------------------------------------|
-5-----1-----3------------------------------------------------|




Tap to rate this tab
# A B C D E F G H I J K L M N O P Q R S T U V W X Y Z